Song name
# A B C D E F G H I J K L M N O P Q R S T U V W X Y Z

Avatar - Bloody Angel tab

this is my first tab so you will maybe see some errors I did this all by ear

Play this part Twice


C#-13---13-12-10----10-12-15----15 13 12----12---13--13--12--10-----|
G#----10---------10----------10----------10---10---10-----------10--|
E-------------------------------------------------------------------|
B-------------------------------------------------------------------|
F#------------------------------------------------------------------|
B-------------------------------------------------------------------|

C#-10-12--9----9----10----9-------------------------------------------|
G#----------10---10----10---10----------------------------------------|
E---------------------------------------------------------------------|
B---------------------------------------------------------------------|
F#--------------------------------------------------------------------|
B---------------------------------------------------------------------|

C#-10---10--8--6---6---8---8--6--5---8---10---10-8-6---6--8--5--------|
G#----6----------6---6---6---------6---6----6--------6----------5-----|
E---------------------------------------------------------------------|
B---------------------------------------------------------------------|
F#--------------------------------------------------------------------|
B---------------------------------------------------------------------|

C#---5--9--5--9--12---------------------------------------------------|
G#--------------------------------------------------------------------|
E---------------------------------------------------------------------|
B---------------------------------------------------------------------|
F#--------------------------------------------------------------------|
B---------------------------------------------------------------------|

Play Only ONCE
 and then back to the other riff

C#-13---13-12-10----10-12-15----15 13 12----12---13--13--12--10-----|
G#----10---------10----------10----------10---10---10-----------10--|
E-------------------------------------------------------------------|
B-------------------------------------------------------------------|
F#------------------------------------------------------------------|
B-------------------------------------------------------------------|

C#-10-12--9----9----10----9-------------------------------------------|
G#----------10---10----10---10----------------------------------------|
E---------------------------------------------------------------------|
B---------------------------------------------------------------------|
F#--------------------------------------------------------------------|
B---------------------------------------------------------------------|

C#-13---13-12-10----10-12-15----15 13 12----12---13--13--12--10-----|
G#----10---------10----------10----------10---10---10-----------10--|
E-------------------------------------------------------------------|
B-------------------------------------------------------------------|
F#------------------------------------------------------------------|
B-------------------------------------------------------------------|

C#-10-12--9----9----9--------------------------------------------------|
G#----------10---10----------------------------------------------------|
E----------------------------------------------------------------------|
B----------------------------------------------------------------------|
F#---------------------------------------------------------------------|
B----------------------------------------------------------------------|

Drums start playing then you play this riff PLAY 2 TIMES


C#--------------------------------------------------------------|
G#--------------------------------------------------------------|
E---------------------------------------------------------------|
B--3--3--2--0-0--3--3--2--0-0--3--3--2--0-0---2-2-2-2-2-2-2-2---|
F#--------------------------------------------------------------|
B---------------------------------------------------------------|


C#---------------------------------------------------|
G#---------------------------------------------------|
E----------------------------------------------------|
B----------------------------------------------------|
F#----------------------------------4-4-4-4-4-4-4-4--|
B--3-3-2-0-0--3-3-2-0-0--3-3-2-0-0--2-2-2-2-2-2-2-2--|

Let the note Ring

C#---------------------------------------------------|
G#---------------------------------------------------|
E----------------------------------------------------|
B----------------------------------------------------|
F#----------------------------------4~~~~~~~~~~~-----|
B--3-3-2-0-0--3-3-2-0-0--3-3-2-0-0--2~~~~~~~~~~~-----|


Play Verse 16 TIMES

C#--------------------------------|
G#--------------------------------|
E----10-10--9--7--7---------------|
B---------------------------------|
F#--------------------------------|
B---------------------------------|


C#---------------------------------------------------|
G#---------------------------------------------------|
E----------------------------------------------------|
B----------------------------------------------------|
F#----------------------------------4-4-4-4-4-4-4-4--|
B--3-3-2-0-0--3-3-2-0-0--3-3-2-0-0--2-2-2-2-2-2-2-2--|

Let the note Ring ~~~~ = Ringing note

C#----------------------------------------------------|
G#----------------------------------------------------|
E-----------------------------------------------------|
B-----------------------------------------------------|
F#----------------------------------4~~~~~~~~~~~~~~~~-|
B--3-3-2-0-0--3-3-2-0-0--3-3-2-0-0--2~~~~~~~~~~~~~~~~-|

Play 14 TIMES

C#--------------------------------|
G#--------------------------------|
E----10-10--9--7--7---------------|
B---------------------------------|
F#--------------------------------|
B---------------------------------|

Let the Chord ring

C#---------------------------------------|
G#---------------------------------------|
E----------------------------------------|
B----------------------------------------|
F#--4-~-~-~-~-~-~-~-~--------------------|
B---2-~-~-~~~----------------------------|


C#-----------------------------------------|
G#--------------------8---8----------------|
E---10---10-9-7---7-9--------10--9---9-----|
B------7--------7-------7----------7---7---|
F#-----------------------------------------|
B------------------------------------------|

C#--------------------------------------|
G#--------------------------------------|
E---10---10-9-7---7-9-6---6---7--6------|
B------7--------7-------7---7--7---7----|
F#--------------------------------------|
B---------------------------------------|

C#-----------------------------------------|
G#--------------------8---8----------------|
E---10---10-9-7---7-9--------10--9---9-----|
B------7--------7-------7----------7---7---|
F#-----------------------------------------|
B------------------------------------------|

B = Bend

C#--------------------------------------|
G#--------------------------------------|
E---10---10-9-7---7-9-6B----------------|
B------7--------7-----------------------|
F#--------------------------------------|
B---------------------------------------|


C#---------------------------------------------------|
G#---------------------------------------------------|
E----------------------------------------------------|
B----------------------------------------------------|
F#----------------------------------4-4-4-4-4-4-4-4--|
B--3-3-2-0-0--3-3-2-0-0--3-3-2-0-0--2-2-2-2-2-2-2-2--|

Let the note Ring ~~~~ = Ringing note

C#----------------------------------------------------|
G#----------------------------------------------------|
E-----------------------------------------------------|
B-----------------------------------------------------|
F#----------------------------------4~~~~~~~~~~~~~~~~-|
B--3-3-2-0-0--3-3-2-0-0--3-3-2-0-0--2~~~~~~~~~~~~~~~~-|

Play 16 TIMES

C#--------------------------------|
G#--------------------------------|
E----10-10--9--7--7---------------|
B---------------------------------|
F#--------------------------------|
B---------------------------------|


C#---------------------------------------------------|
G#---------------------------------------------------|
E----------------------------------------------------|
B----------------------------------------------------|
F#----------------------------------4-4-4-4-4-4-4-4--|
B--3-3-2-0-0--3-3-2-0-0--3-3-2-0-0--2-2-2-2-2-2-2-2--|

Let the note Ring ~~~~ = Ringing note

C#----------------------------------------------------|
G#----------------------------------------------------|
E-----------------------------------------------------|
B-----------------------------------------------------|
F#----------------------------------4~~~~~~~~~~~~~~~~-|
B--3-3-2-0-0--3-3-2-0-0--3-3-2-0-0--2~~~~~~~~~~~~~~~~-|

Play 2 TIMES

C#-----------------------------------------|
G#--------------------8---8----------------|
E---10---10-9-7---7-9--------10--9---9-----|
B------7--------7-------7----------7---7---|
F#-----------------------------------------|
B------------------------------------------|

C#--------------------------------------|
G#--------------------------------------|
E---10---10-9-7---7-9-6---6---7--6------|
B------7--------7-------7---7--7---7----|
F#--------------------------------------|
B---------------------------------------|


C#--------------------------------------------------|
G#--------------------------------------------------|
E--7---7-5-3---3---5---5-3-2---5--------------------|
B----3-------3---3---3-------3----------------------|
F#--------------------------------------------------|
B---------------------------------------------------|


C#-------------------------------------------------|
G#-------------------------------------------------|
E---7---7-5-3---3-5-2---2---2----------------------|
B-----3-------3-------3---3---3--------------------|
F#------------------------------4------------------|
B--------------------------------------------------|


C#-----------------------------------------|
G#--------------------8---8----------------|
E---10---10-9-7---7-9--------10--9---9-----|
B------7--------7-------7----------7---7---|
F#-----------------------------------------|
B------------------------------------------|

C#--------------------------------------|
G#--------------------------------------|
E---10---10-9-7---7-9-6---6---7--6------|
B------7--------7-------7---7--7---7----|
F#--------------------------------------|
B---------------------------------------|

. = Palm Mute
C#-------------------------------------------------------------------|
G#-------------------------------------------------------------------|
E---7---10-9--12--14-----9--10---------------------------------------|
B---7--X--X--X----X--7--X--X-----------------------------------------|
F#--5--8--7--10--12--5--7--8--12-12-12-12--10-10-10-10-8-8-8-8-7-----|
B---0----------------0-----------------------------------------------|
                              .  .  .  .   .  .  .  .  . . . .
. = Palm Mute

C#---------------------------------------------------------------|
G#---------------------------------------------------------------|
E----------------------------------------------------------------|
B--7---7---7---7--7---7---7---7---8---8---8---8---10--10---10----|
F#---5---5---5--5---3---3---3---3---5---5---5---5----7---7----7--|
B----------------------------------------------------------------|
   . . . . . . . . . . . . . . . . . . . . . . . . . . . . . . .

C#------------------------------------------|
G#------------------------------------------|
E-------------------------------------------|
B-7--7--7--7--7-7-7-7--8-8-8-8---7-7-7-7----|
F#-5--5--5--5--3-3-3-3--5-5-5-5---4-4-4-4---|
B-------------------------------------------|
  .. .. .. .. ........ ........  ........

Play 2 TIMES

C#-----------------------------------------------------------|
G#-----------------------------------------------------------|
E--7-7-7-7-101010109-9-9-9-12-12-12-12-10101010-15-14-9------|
B--X-X-X-X-X-X-X-X-X-X-X-X-X--X--X--X--X-X-X-X--X--X--X------|
F#-5-5-5-5-8-8-8-8-7-7-7-7-10-10-10-10-8-8-8-8--13-12-7------|
B------------------------------------------------------------|

Play This riff 2 TIMES

C#---------------------------------------------------|
G#---------------------------------------------------|
E--14---14--12--10-10-12--15---15---14--12--12-------|
B--X-----X--X---X--x--X---X-----X----X---X--X--------|
F#-12---12--10--8--8--10--13---13---12---10-10-------|
B----------------------------------------------------|


C#---------------------------------------|
G#---------------------------------------|
E--14---14--12--10--10---12--9-----------|
B--X-----X--X---X---X----X---X-----------|
F#-12---12--10--8---8----10--7-----------|
B----------------------------------------|


 Play 4 TIMES
C#---------------------------------------------------|
G#---------------------------------------------------|
E----------------------------------------------------|
B----------------------------------------------------|
F#----------------------------------4-4-4-4-4-4-4-4--|
B--3-3-2-0-0--3-3-2-0-0--3-3-2-0-0--2-2-2-2-2-2-2-2--|


Let the note Ring ~~~~ = Ringing note

C#----------------------------------------------------|
G#----------------------------------------------------|
E-----------------------------------------------------|
B---------------------------------------0~~~~~~~~~~~~-|
F#----------------------------------4~~~0~~~~~~~~~~~~-|
B--3-3-2-0-0--3-3-2-0-0--3-3-2-0-0--2~~~0~~~~~~~~~~~~-|

C#-13---13-12-10----10-12-15----15 13 12----12---13--13--12--10-----|
G#----10---------10----------10----------10---10---10-----------10--|
E-------------------------------------------------------------------|
B-------------------------------------------------------------------|
F#------------------------------------------------------------------|
B-------------------------------------------------------------------|

C#-10-12--9----9----10----9-------------------------------------------|
G#----------10---10----10---10----------------------------------------|
E---------------------------------------------------------------------|
B---------------------------------------------------------------------|
F#--------------------------------------------------------------------|
B---------------------------------------------------------------------|

C#-13---13-12-10----10-12-15----15 13 12----12---13--13--12--10-----|
G#----10---------10----------10----------10---10---10-----------10--|
E-------------------------------------------------------------------|
B-------------------------------------------------------------------|
F#------------------------------------------------------------------|
B-------------------------------------------------------------------|

C#-10-12--9----9----9----9----------------------------------------------|
G#----------10---10---10------------------------------------------------|
E-----------------------------------------------------------------------|
B-----------------------------------------------------------------------|
F#----------------------------------------------------------------------|
B-----------------------------------------------------------------------|
Tap to rate this tab
# A B C D E F G H I J K L M N O P Q R S T U V W X Y Z