Song name
# A B C D E F G H I J K L M N O P Q R S T U V W X Y Z

Avenged Sevenfold - Synyster Gates tab

-------------------------------------------------------------------------------
			     Synyster Gates Solo - Avenged Sevenfold
-------------------------------------------------------------------------------
Tabbed by: Sam Blohm
Email: samblohm@yahoo.com

Tuning: Standard

Palm Mute all notes on the A String through the whole song   2x
e|------------------------------------------------------------|
B|------------------------------------------------------------|
G|------------------------------------------------------------|
D|----------6-------6h7-----------8-----------7-----------6h7-|
A|5-5-5-5-----5-5-------5-5-5-5-----5-5-5-5-----5-5-5-5-------|
E|------------------------------------------------------------|
        Palm Mute 5th fret here                              1x
e|------------------------------------------------------------|
B|------------------------------------------------------------|
G|----------6-------6h7-----------8-----------7-----------6h7-|
D|5-5-5-5-----5-5-------5-5-5-5-----5-5-5-5-----5-5-5-5-------|
A|------------------------------------------------------------|
E|------------------------------------------------------------|
                                                             1x
e|------------------------------------------------------------|
B|------------------------------------------------------------|
G|------------------------------------------------------------|
D|----------6-------6h7-----------8-----------7-----------6p7-|
A|5-5-5-5-----5-5-------5-5-5-5-----5-5-5-5-----5-5-5-5-------|
E|------------------------------------------------------------|
                                                *Divebomb 5th*
e|-------------------------------------------------------|
b|----------------------------------------------------5*-|
g|-------------------------------------------------------|
d|-----------6------6h7p6---------------9------9h10p9----|
a|--4-4-4-4----4-4--------4-4--7-7-7-7----7-7------------|
d|-------------------------------------------------------|
                                    
                                                             2x
e|------------------------------------------------------------|
B|------------------------------------------------------------|
G|------------------------------------------------------------|
D|----------6-------6h7-----------8-----------7-----------6h7-|
A|5-5-5-5-----5-5-------5-5-5-5-----5-5-5-5-----5-5-5-5-------|
E|------------------------------------------------------------|
        Palm Mute 5th fret here                              1x
e|------------------------------------------------------------|
B|------------------------------------------------------------|
G|----------6-------6h7-----------8-----------7-----------6h7-|
D|5-5-5-5-----5-5-------5-5-5-5-----5-5-5-5-----5-5-5-5-------|
A|------------------------------------------------------------|
E|------------------------------------------------------------|
                                                             1x
e|------------------------------------------------------------|
B|------------------------------------------------------------|
G|------------------------------------------------------------|
D|----------6-------6h7-----------8-----------7-----------6h7-|
A|5-5-5-5-----5-5-------5-5-5-5-----5-5-5-5-----5-5-5-5-------|
E|------------------------------------------------------------|
                                                *Divebomb 5th*
e|-------------------------------------------------------|
b|----------------------------------------------------5*-|
g|-------------------------------------------------------|
d|-----------6------6h7p6---------------9------9h10p9----|
a|--4-4-4-4----4-4--------4-4--7-7-7-7----7-7------------|
d|-------------------------------------------------------|


| /  slide up
| \  slide down
| h  hammer-on
| p  pull-off
| ~  vibrato
| +  harmonic
| x  Mute note
===============================================================================
Tap to rate this tab
# A B C D E F G H I J K L M N O P Q R S T U V W X Y Z