Song name
# A B C D E F G H I J K L M N O P Q R S T U V W X Y Z

Avenged Sevenfold - Seize The Day Live tab

Seize The Day Live Solo

Tabbed by Keaton Sunley

Email: keasun93@hotmail.com

This is the solo played in new york that syn improvised. Hope you like it.

\=slide up
b=bend up
~=vibrato
rb=release bend
p=pulloff
hb=hold bend
h=hammer on
*=pinch harmonic
/=slide down

e|----\13-12----15--------------------------------------|
b|-----------13----13------------------\17b18~b19rb-17~-|
g|---------------------12-15-15p14-14-------------------|
d|------------------------------------------------------|
a|------------------------------------------------------|
e|------------------------------------------------------|

e|---------------------------------------------------------------18--18-17---|
b|-----\13-15-15b-15b-13-15~--------13-15~-----------15----18-15---15-----18-|
g|---------------------------\14-15------------15-17----15-------------------|
d|------------------------------------------\15------------------------------|
a|---------------------------------------------------------------------------|
e|---------------------------------------------------------------------------|

e|---17b20hb~-rb17p15-\13~---------------------------------------------------|
a|--------------------------\17-18-15---18-17h18p17--15----------------------|
d|-----------------------------------14-----------------17b17b17b/-12b-10-12-|
g|---------------------------------------------------------------------------|
b|---------------------------------------------------------------------------|
e|---------------------------------------------------------------------------|

e|--------------------------------------------------------------------------|
b|-----------------------------------15-17-18p15p13-15-13-15-13~----13-15---|
g|/10-9~-10-9-10-9~---------------14-----------------------------15---------|
d|------------------12-12-12-12-15------------------------------------------|
a|--------------------------------------------------------------------------|
e|--------------------------------------------------------------------------|

e|--------------------------------------------------------------------------|
b|-15-15-15p13-13p11-11-10-11-10-11-10--------------------------------------|
g|-------------------------------------10-10*/------------------------------|
d|--------------------------------------------------------------------------|
a|--------------------------------------------------------------------------|
e|--------------------------------------------------------------------------|

I hope u guys liked it, pretty easy to play, so have some fun with it. Good luck!
Tap to rate this tab
# A B C D E F G H I J K L M N O P Q R S T U V W X Y Z