Song name
# A B C D E F G H I J K L M N O P Q R S T U V W X Y Z

Avenged Sevenfold - The Fight tab

Its the solo and the intro. Probably the best song from Diamonds in the Rough, very
and almost City of Evilish.

                    - LucionX

h - hammer-on
p - pull-off
b - bend from first fret to second
r - release from bend
/ - slide in from below
\ - slide in from above
* - pinch harmonic

Intro
e|-------------------------------------------------------------------------------------------|
B|-------------------------------------------------------------------------------------------|
G|-----------7h10p7-------10-7---7h10p7------------------------------------------------------|
D|-------6-7------------6---------------6-5--------------3-5h8p5-------8p5---5h8p5-----------|
A|---5-8--------------8---------------------8-5------4-5-----------4-5-------------5-4-------|
D|-------------------------------------------------5-----------------------------------8-5---|

e|--------------------------------------------------------------------------------|
B|--------------------------------------------------5h6p5-8p5---------5h6p5-8p5---|
G|---7b9r7*--------------7b9r7*-------------------5-----------------5-------------|
D|----------7-------------------7-------------------------------------------------|
A|------------8-7--5--------------8-7--5------5-8---------------5-8---------------|
D|-------------------7-------------------7----------------------------------------|

e|----------------------------------|
B|-------8-6-5-----8-6-5------------|
G|---5-5---------5------------------|
D|--------------------------7-------|
A|--------------------------5---6---|
D|------------------------------6---|

Solo
e|---12h13p12p10--------------------------------------------------5h6h7h8--/7---|
B|---------------10--------------------------------7h8h9h10--9v-----------------|
G|------------------10------9h10-9h10h11h12--11v--------------------------------|
D|---------------------12-------------------------------------------------------|
A|------------------------------------------------------------------------------|
D|------------------------------------------------------------------------------|

e|-----------------------------------------------------9h12p10p9-------------------|
B|---8b10r10--10----------------8--------------9h10h11-----------11p10-------------|
G|---------------10---10b12r10----9----9h10h12-------------------------10h12-------|
D|---------------------------------------------------------------------------------|
A|---------------------------------------------------------------------------------|
D|---------------------------------------------------------------------------------|

-------10h11h12h13---|
10h11h12h13----------|
---------------------|
---------------------|
---------------------|
---------------------|

e|----------------------------------------------------------------------|
B|-----------------------8b10--------8h10b13---------9h10h12-13b15r15---|
G|---/5b7---7b9---8b10----------7h10--------------10--------------------|
D|---------------------------------------------12-----------------------|
A|----------------------------------------------------------------------|
D|----------------------------------------------------------------------|

e|---------------15-15-------18-18-15-15---------------------------20-20--------------------|
B|---17-17-------------17-17---------------18-18-------20-20-17-17-------18-18---20b22r22---|
G|---------18-18---------------------------------19-19--------------------------------------|
D|------------------------------------------------------------------------------------------|
A|------------------------------------------------------------------------------------------|
D|------------------------------------------------------------------------------------------|
Tap to rate this tab
# A B C D E F G H I J K L M N O P Q R S T U V W X Y Z