Song name
# A B C D E F G H I J K L M N O P Q R S T U V W X Y Z

Avenged Sevenfold - Sidewinder tab

Help us improve GuitareTab! Take a short survey!
Hope You Like It.
1st Is Zacky's
Then Synysters


Zacky's
e|-----------5------------------------8--|
B|5h6p5-5-6-8-8-6-5---5-6-5--------------|
G|-----7------------7-------7-6-5--7/9---|
D|---------------------------------------|
A|---------------------------------------|
D|---------------------------------------|

e|--------------------5-6-5-6-5---------------|
B|-------------5-6-5-6-----------8-6-5-6p5----|
G|-----6-7-6-7------------------7-----7---6-5-|
D|8-7-8---------------------------------------|
A|--------------------------------------------|
D|--------------------------------------------|

e|5-8---5------------------------------------|
B|----6----6--------------------/3T-5T-6T-8T-|
G|-------7---7--------------5-5-/3T-5T-7T-9T-|
D|----------7--7--------------x--------------|
A|------------8--5-8-5-3-5/7--7--------------|
D|-------------------------------------------|

Syn's:
e|-------5h8p5-5-5---------8----/12-8----8-/15-13-12--12--------------------|
B|----------------------5-6-5-6--------10-----------13--13---13-14-15~------|
G|---5-7-----------7-5-7-------------10-------------------12----------------|
D|--------------------------------------------------------------------------|
A|5-8-----------------------------------------------------------------------|
D|--------------------------------------------------------------------------|

e|13-10----------------------------------------------10-13-10---------------|
B|-----13-10------------------------------------10-13--------13-10----------|
G|-----------12-13/12p10----10-12p10~------10-12------------------12-10-(10)|
D|-----------------------12-----------10-12---------------------------------|
A|--------------------------------------------------------------------------|
D|--------------------------------------------------------------------------|

e|--------------9-10-12-10-9-8-10-8-10/12---|
B|------------10----------------------------|
G|-----9-10-12------------------------------|
D|11-12-------------------------------------|
A|------------------------------------------|
D|------------------------------------------|

e|15p12-12-12h13p12---------------------------------------------------------|
B|------------------15-13-15-10---------------------------------------------|
G|-----------------------------12-10-----12-10------------------------------|
D|----------------------------------12-10-----12-12-12-12-10-12-------------|
A|--------------------------------------------------------------------------|
D|--------------------------------------------------------------------------|

e|--------------------------------------------------------------------------|
B|-----------------------13-12-10-------13-17b------------------------------|
G|------9-12-10-9---10-12----------12-14------------------------------------|
D|10--10----------12--------------------------------------------------------|
A|--12----------------------------------------------------------------------|
D|--------------------------------------------------------------------------|
Related for Sidewinder tab