Song name
# A B C D E F G H I J K L M N O P Q R S T U V W X Y Z

Avenged Sevenfold - Demons tab

Help us improve GuitareTab! Take a short survey!
I figured this out by ear and its a REALLY hard song to figure out, but I got what I could.


1|-----------------------------|
2|-----------------------------|
3|-----------------------------|               (8 times)
4|--0-3-0-5-6-7--0--0-3-0-5-6-7|
5|--0-3-0-5-6-7--0--0-3-0-5-6-7|
6|--0-3-0-5-6-7--0--0-3-0-5-6-7|

1|--17-13----------------|
2|---------15------------|
3|------------14---------|
4|---------------15------|
5|------------------17-16|
6|-----------------------|

1|----|------------|-------------|---|------------|-17-13---------------|
2|----|------------|-------------|---|------------|-------15------------|
3|----|------------|-------------|---|------------|----------14---------|  (4 times)
4|--0-|--0-0-0-0-0-|-3-2-2-5-6-7-|-0-|-0-0-0-0-0-0|------------15-------|
5|--0-|--0-0-0-0-0-|-3-2-2-5-6-7-|-0-|-0-0-0-0-0-0|---------------17-16-|
6|--0-|--0-0-0-0-0-|-3-2-2-5-6-7-|-0-|-0-0-0-0-0-0|---------------------|

1|--------------------------------------------------------------------|
2|--------------------------------------------------------------------|
3|--------------------------------------------------------------------|
4|--1-1-1-1-1-1-1-1-1-1-1-1-1-1-1-1--4-4-4-4-4-4-4-4---5-5-5-5-5-5-5-5|
5|--1-1-1-1-1-1-1-1-1-1-1-1-1-1-1-1--4-4-4-4-4-4-4-4---5-5-5-5-5-5-5-5|
6|--1-1-1-1-1-1-1-1-1-1-1-1-1-1-1-1--4-4-4-4-4-4-4-4---5-5-5-5-5-5-5-5|

1|-----------------------------------------------------------------------------------------|
2|-----------------------------------------------------------------------------------------|
3|--3-3-3-3-3-3-3-3------------------------------------------------------------------------|
4|--3-3-3-3-3-3-3-3--3-3-3-3-3-3-3-3---1-1-1-1-1-1-1-1-1-1-1-1-1-1-1-1---3-3-3-3-3-3-3-3-3-|
5|--1-1-1-1-1-1-1-1--3-3-3-3-3-3-3-3---1-1-1-1-1-1-1-1-1-1-1-1-1-1-1-1---3-3-3-3-3-3-3-3-3-|
6|-------------------3-3-3-3-3-3-3-3---1-1-1-1-1-1-1-1-1-1-1-1-1-1-1-1---3-3-3-3-3-3-3-3-3-|
I tried running away from me, Convince me that I've grown but I can't
1|------------------------------------------------------------------------|
2|------------------------------------------------------------------------|
3|--7--7-7---9---10--12--12-12-12-12-12-12---6-6-6---7---9---7-7-7---9-10-|
4|------------------------------------------------------------------------|
5|--5--5-5---7---8---10--10-10-10-10-10-10---4-4-4---5---7---5-5-5---7-8--|
6|------------------------------------------------------------------------|
change so unnaturally, demons they follow me
1|--------------------------------------------------------------------------|
2|--------------------------------------------------------------------------|
3|--------------------------------------------------------------------------|
4|-------8----8-------------7---7-------------8----8-------------7---7------|
5|----10---10---10---10---9---9---9---9----10---10---10---10---9---9---9---9|
6|--8--------------8----7-----------7----8--------------8----7-----------7--|
I quit running away from me, Convinced that I have grown, but found out
1|------------------------------------------------------------------------|
2|------------------------------------------------------------------------|
3|--7--7-7---9---10--12--12-12-12-12-12-12---6-6-6---7---9---7-7-7---9-10-|
4|------------------------------------------------------------------------|
5|--5--5-5---7---8---10--10-10-10-10-10-10---4-4-4---5---7---5-5-5---7-8--|
6|------------------------------------------------------------------------|
All my reasons for insanity, all a part of me
1|--------------------------------------------------------------------------|
2|--------------------------------------------------------------------------|
3|--------------------------------------------------------------------------|
4|-------8----8-------------7---7-------------8----8-------------7---7------|
5|----10---10---10---10---9---9---9---9----10---10---10---10---9---9---9---9|
6|--8--------------8----7-----------7----8--------------8----7-----------7--|

1|--17-13----------------|
2|---------15------------|
3|------------14---------|
4|---------------15------|
5|------------------17-16|
6|-----------------------|

1|----|------------|-------------|---|------------|-17-13---------------|
2|----|------------|-------------|---|------------|-------15------------|
3|----|------------|-------------|---|------------|----------14---------|  (4 times)
4|--0-|--0-0-0-0-0-|-3-2-2-5-6-7-|-0-|-0-0-0-0-0-0|------------15-------|
5|--0-|--0-0-0-0-0-|-3-2-2-5-6-7-|-0-|-0-0-0-0-0-0|---------------17-16-|
6|--0-|--0-0-0-0-0-|-3-2-2-5-6-7-|-0-|-0-0-0-0-0-0|---------------------|

1|--------------------------------------------------------------------|
2|--------------------------------------------------------------------|
3|--------------------------------------------------------------------|
4|--1-1-1-1-1-1-1-1-1-1-1-1-1-1-1-1--4-4-4-4-4-4-4-4---5-5-5-5-5-5-5-5|
5|--1-1-1-1-1-1-1-1-1-1-1-1-1-1-1-1--4-4-4-4-4-4-4-4---5-5-5-5-5-5-5-5|
6|--1-1-1-1-1-1-1-1-1-1-1-1-1-1-1-1--4-4-4-4-4-4-4-4---5-5-5-5-5-5-5-5|

1|-----------------------------------------------------------------------------------------|
2|-----------------------------------------------------------------------------------------|
3|--3-3-3-3-3-3-3-3------------------------------------------------------------------------|
4|--3-3-3-3-3-3-3-3--3-3-3-3-3-3-3-3---1-1-1-1-1-1-1-1-1-1-1-1-1-1-1-1---3-3-3-3-3-3-3-3-3-|
5|--1-1-1-1-1-1-1-1--3-3-3-3-3-3-3-3---1-1-1-1-1-1-1-1-1-1-1-1-1-1-1-1---3-3-3-3-3-3-3-3-3-|
6|-------------------3-3-3-3-3-3-3-3---1-1-1-1-1-1-1-1-1-1-1-1-1-1-1-1---3-3-3-3-3-3-3-3-3-|

1|------------------------------------------------------------------------|
2|------------------------------------------------------------------------|
3|--7--7-7---9---10--12--12-12-12-12-12-12---6-6-6---7---9---7-7-7---9-10-|
4|------------------------------------------------------------------------|
5|--5--5-5---7---8---10--10-10-10-10-10-10---4-4-4---5---7---5-5-5---7-8--|
6|------------------------------------------------------------------------|

1|--------------------------------------------------------------------------|
2|--------------------------------------------------------------------------|
3|--------------------------------------------------------------------------|
4|-------8----8-------------7---7-------------8----8-------------7---7------|
5|----10---10---10---10---9---9---9---9----10---10---10---10---9---9---9---9|
6|--8--------------8----7-----------7----8--------------8----7-----------7--|

1|------------------------------------------------------------------------|
2|------------------------------------------------------------------------|
3|--7--7-7---9---10--12--12-12-12-12-12-12---6-6-6---7---9---7-7-7---9-10-|
4|------------------------------------------------------------------------|
5|--5--5-5---7---8---10--10-10-10-10-10-10---4-4-4---5---7---5-5-5---7-8--|
6|------------------------------------------------------------------------|

1|--------------------------------------------------------------------------|
2|--------------------------------------------------------------------------|
3|--------------------------------------------------------------------------|
4|-------8----8-------------7---7-------------8----8-------------7---7------|
5|----10---10---10---10---9---9---9---9----10---10---10---10---9---9---9---9|
6|--8--------------8----7-----------7----8--------------8----7-----------7--|

1|-------------------------|
2|-------------------------|
3|--7-7--7-7-8-------------|
4|--7-7--7-7-8--9-9--9-9-10|
5|--5-5--5-5-6--9-9--9-9-10|
6|--------------9-9--9-9-10|

1|--------------------------------------------------------------------------|
2|--------------------------------------------------------------------------|
3|--------------------------------------------------------------------------|
4|-------8----8-------------7---7-------------8----8-------------7---7------|
5|----10---10---10---10---9---9---9---9----10---10---10---10---9---9---9---9|
6|--8--------------8----7-----------7----8--------------8----7-----------7--|

1|-------------------------|
2|-------------------------|
3|--7-7--7-7-8-------------|
4|--7-7--7-7-8--9-9--9-9-10|
5|--5-5--5-5-6--9-9--9-9-10|
6|--------------9-9--9-9-10|

1|--------------------------------------------------------------------------|
2|--------------------------------------------------------------------------|
3|--------------------------------------------------------------------------|
4|-------8----8-------------7---7-------------8----8-------------7---7------|
5|----10---10---10---10---9---9---9---9----10---10---10---10---9---9---9---9|
6|--8--------------8----7-----------7----8--------------8----7-----------7--|

And then later in the song, there's small solo that Zacky (the rhythm guitarist)
does... and heres some of it...

1|-----------------------------------------------|
2|-----------------------------------------3/5--1|
3|---------------0-3-3-2-------------------------|
4|--0/3--2-0---2---------3---------3-5---5-------|
5|-----------3-------------5-3-1-5-----3---------|
6|-----------------------------------------------|

I couldn't figure out the rest, but I'm positive this is all right!
Questions or comments? e-mail me at xophrax@yahoo.com

(Everything originally written by Avenged Sevenfold. This song can be found on
their new 
"Live in the LBC and Diamonds in the Rough")
Related for Demons tab