Song name
# A B C D E F G H I J K L M N O P Q R S T U V W X Y Z

Avenged Sevenfold - Tension tab

Chorus:

--------------------------------------------------------------------E
--------------------------------------------------------------------B
--------------------------------------------------------------------G
--------------------------------------------------------------------D
----55555555555555555-----444444444444444444444--333333333333333333-A
--------------------------------------------------------------------E

--------------------------------------------------------------------E
--------------------------------------------------------------------B
--------------------------------------------------------------------G
--------------------------------------------------------------------D
----22222222222222222-----111111111111111111111--000000000000000000-A
--------------------------------------------------------------------E

--------------------------------------------------------------------E
--------------------------------------------------------------------B
--------------------------------------------------------------------G
--------------------------------------------------------------------D
----33333333555556666-----55555555555777778888\---------------------A
--------------------------------------------------------------------E

Chorus again

Solo
May be a little off sorry...

--------------------------------------------------------------------E
--------------------------------------------------------------------B
-/10--12b-12-12-11-10-9-12b-13-13-12-11-10-12`10-12-12-12-11-10-----G
--------------------------------------------------------------------D
--------------------------------------------------------------------A
--------------------------------------------------------------------E

--------------------------------------------------------------------E
--------------------------------12h14-14b-16-16-15-14-/16h18b 16----B
-16b-16-15h16-15h16-15-------12-------------------------------------G
-----------------------17-16----------------------------------------D
--------------------------------------------------------------------A
--------------------------------------------------------------------E

------------------------------------------------12-12-13-14-15b-12h14-E
-15h17-15-13-13h1517-17b-------15-----------------------------------B
--------------------------10h12----14~~----------------------------G
---------------------------------------12h13-12--------------------D
--------------------------------------------------------------------A
--------------------------------------------------------------------E


--------------------------------------------------------------------E
-------14-----14-16-16b 14-16---------------------------------------B
----14----14b-------------------------------------------------------G
-14-----------------------------------------------------------------D
--------------------------------------------------------------------A
--------------------------------------------------------------------E

Chorus

Outro
(picked many times quickly)

--------------------------------------------------------------------E
--------------------------------------------------------------------B
-----------15--14-------15-14--12-10-9-10-9--7-9-10-9-7-9-10-12-----G
-12---15----------11-14---------------------------------------------D
--------------------------------------------------------------------A
--------------------------------------------------------------------E

--------------------------------18-17-15h17--------18-17-------18-17E
-------10-8--------------14-14---------------15-18-------15-18------B
-10-12------6/9-6/9-6/9---------------------------------------------G
--------------------------------------------------------------------D
--------------------------------------------------------------------A
--------------------------------------------------------------------E

-15-----------------------------------------------------------------E
----18-17-18-17---15-17-18-20-15-17-18-20-18-20-22-20-14/17-14/17---B
--------------------------------------------------------------------G
--------------------------------------------------------------------D
--------------------------------------------------------------------A
--------------------------------------------------------------------E

-----------------18-17-15h17\---------------------------------------E
-14/17 14-14h17-----------------------------------------------------B
--------------------------------------------------------------------G
--------------------------------------------------------------------D
--------------------------------------------------------------------A
--------------------------------------------------------------------E

Tap to rate this tab
# A B C D E F G H I J K L M N O P Q R S T U V W X Y Z