Song name
# A B C D E F G H I J K L M N O P Q R S T U V W X Y Z

Avenged Sevenfold - Second Heartbeat tab

Second Heartbeat solo revised from other tabs and by me.
/slide
h hammer on
p pull off
b bend

|--------------------/10-----------------13-15-13--------------------------|
|-/13--------------------11--------13-16----------16-13-15-13-11-13--------|
|-----12----------12--------10--15----------------------------------12-----|
|--------13-12-13----------------------------------------------------------|
|--------------------------------------------------------------------------|
|--------------------------------------------------------------------------|

|----------------------------------------------------|
|----------------------------------------------------|
|----------------------------------------------------|
|-12h13-12-------------------------------------------|
|----------13h15-13--13h14h15------------------------|
|----------------------------------------------------|

|--------------------------/10-------------------------13-15-13------------|
|-/13--------------------------11-------------13-15-16----------16-13------|
|-----12----------------12--------10-12-13-15------------------------------|
|--------13-12-13-12-13----------------------------------------------------|
|--------------------------------------------------------------------------|
|--------------------------------------------------------------------------|

|-/18-16-15-----------------------------13-11-10----------------------------|
|-----------16-13--13-15-16-15-13-16-/10---------13-11-10-------------------|
|---------------------------------------------------------15-13-12----------|
|------------------------------------------------------------------15-13-12-|
|---------------------------------------------------------------------------|
|---------------------------------------------------------------------------|

|----------11--------------------------------------10-11-13-13-11-10--|
|-------11-----11-------------------------10-11-13--------------------|
|----12-----------12-------------10-12-13-----------------------------|
|-13-----------------13-10-12-13--------------------------------------|
|---------------------------------------------------------------------|
|---------------------------------------------------------------------|

|-13-11-10-11-----18-16-15----------------------------------------------|
|--------------------------18-16-15-16-15-13----------------------------|
|-------------10-----------------------------17-15-13-15-13-12----------|
|--------------------------------------------------------------17-15-13-|
|-----------------------------------------------------------------------|
|-----------------------------------------------------------------------|

                                                                       X4
|----------------------------------------------10-11-|-------1520152015-|
|-------------------------------------10-------------|----16------------|
|----------------------------------------12-13-------|-17---------------|
|-15-13-12-------------------10-12-13----------------|------------------|
|----------17-15-13-15-13-12-------------------------|------------------|
|----------------------------------------------------|------------------|

                      X6
|-22-22-22-18-18-18-18-|-22-----------------------------------------------|
|----------------------|-----------------------------------------13-15-16-|
|----------------------|--------------------------------12-13-15----------|
|----------------------|--------------15-17-18-12-13-15-------------------|
|----------------------|-----15-17-18-------------------------------------|
|----------------------|--------------------------------------------------|

|-15-16-18-18/20b------||||||--|\\---||--||\\---------------------------|
|----------------------||------||\\--||--||-\\--------------------------|
|----------------------||||||--||-\\-||--||-||--------------------------|
|----------------------||------||--\\||--||-//--------------------------|
|----------------------||||||--||---\||--||//---------------------------|
|-----------------------------------------------------------------------|
Tap to rate this tab
# A B C D E F G H I J K L M N O P Q R S T U V W X Y Z