Song name
# A B C D E F G H I J K L M N O P Q R S T U V W X Y Z

Avenged Sevenfold - Seize The Day Acoustic tab

 
||--1--0-----3---------------|----------1--------1-1-|
||--------1-----1------------|-----------------------|
||-----------------0--3-3-3--|--2--2-----------------|
||---------------------------|-----------------------|
||---------------------------|-----------------------|
||---------------------------|-----------------------|



--1----1-1-1--1b----0~--------|--------1----1~------------|
------------------------------|--1--3-----------------3-1-|
------------------------------|---------------------------|
------------------------------|---------------------------|
------------------------------|---------------------------|
------------------------------|---------------------------|


  
--------------------------|-----------------1-----6--|
--3~-------------1--3~----|--------1--3--------3-----|
-----------2--3-----------|-----3--------3-----------|
--------------------------|--3-----------------------|
--------------------------|--------------------------|
--------------------------|--------------------------|


 
-----6--5-------6--/8--------|-------5------5-5-5--3--3----|
--3--------6-----------------|-----------------------------|
-----------------------------|-----------------------------|
-----------------------------|-----------------------------|
-----------------------------|-----------------------------|
-----------------------------|-----------------------------|


   
--------3~----------1--3--5----|----5br------------------------|
-------------------------------|-------------3------3-----3----|
-------------------------------|------------------5---5-5------|
-------------------------------|-------------------------------|
-------------------------------|-------------------------------|
-------------------------------|-------------------------------|



----------1----------------------------|-----------------------------|
------------3-1-------1----------------|-----------------------------|
----------------2-0-----2-0------------|-----------------------------|
--------------------3-------3-0--------|-------------------0----3----|
---------------------------------------|----------0--1--3------------|
---------------------------------------|-----------------------------|



--------------------------|-----------6--------5--------|-----------5--------|
-----------------------3--|-----------------------------|--------------------|
-----------------3--------|--3--2--2--------------------|--------------------|
--------0--3--0-----0-----|-----------------------------|--------------------|
--------------------------|-----------------------------|--------------------|
--------------------------|-----------------------------|--------------------|


 
--5------------/3--------|-----0--1-----------------|-------------------------|
-----------1-3-----------|--3--------------3--------|----------------3--------|
-------------------------|--------------------------|-------2-----------------|
-------------------------|--------------------------|-------------------------|
-------------------------|--------------------------|-------------------------|
-------------------------|--------------------------|-------------------------|


 
------------------------|---------------------------|
------------1--3--------|--3-3-3--1--1--------------|
------2--3--------------|---------------3--3--2--3--|
------------------------|---------------------------|
------------------------|---------------------------|
------------------------|---------------------------|


             
-----------------------------------||
-----------------------------------||
--2--3--2--------------------------||
-----------3------3----------------||
-----------------------------------||
-----------------------------------||
Tap to rate this tab
# A B C D E F G H I J K L M N O P Q R S T U V W X Y Z