Song name
# A B C D E F G H I J K L M N O P Q R S T U V W X Y Z

Avenged Sevenfold - Synysters Gates tab

----------------------------------------------------------------------------
Synyster's Melodic Solo - Avenged Sevenfold 
---------------------------------------------------------------------------- 
Tabbed by:chaosctrl 

Tuning:Dropped D 

 |Tempo = 100 bpm |Tempo = 105 bpm  |Tempo = 110 bpm   |Tempo = 115 bpm
e|------10--------12------13----------------9-----------10-------12-------| 
B|----10--10--------10------10-----------10---10----------10-------10-----| 
G|--10------10--10----10------10-------9---------9----9------9--------9---| 
D|12----------12--------12------12--11-------------11----------11-------11| 
A|------------------------------------------------------------------------| 
D|------------------------------------------------------------------------| 

  |Tempo = 120 bpm
e|------10--------12------13----------------9-----------10-------12-------| 
B|----10--10--------10------10-----------10---10----------10-------10-----| 
G|--10------10--10----10------10-------9---------9----9------9--------9---| 
D|12----------12--------12------12--11-------------11----------11-------11| 
A|------------------------------------------------------------------------| 
D|------------------------------------------------------------------------| 

e|------10-------12------13------17------13------14------15--17-----------| 
B|----11---11------11------11------13------13------13------13--13---------| 
G|--10-------10------10------10------14------14------14-------------------| 
D|12-----------12------12------12------15------15------15-----------------| 
A|------------------------------------------------------------------------| 
D|------------------------------------------------------------------------| 

e|18------18------17------15------17------17------15------13--------------| 
B|--15------15------15------15------13------13------13------13------------| 
G|----15------15------15------15------14------14------14------14----------| 
D|------17------17------17------17------15------15------15------15--------| 
A|------------------------------------------------------------------------| 
D|------------------------------------------------------------------------| 

e|12-------13-------12-------10--------9--------9--------10-------12------| 
B|---9--------9--------9--------9--------10-------10-------10-------10----| 
G|-----9--------9--------9--------9---------9--------9--------9--------9--| 
D|-------9--------9--------9--------9---------11-------11-------11------11| 
A|------------------------------------------------------------------------| 
D|------------------------------------------------------------------------|

e|------10--------12------13----------------9-----------10-------12-------| 
B|----10--10--------10------10-----------10---10----------10-------10-----| 
G|--10------10--10----10------10-------9---------9----9------9--------9---| 
D|12----------12--------12------12--11-------------11----------11-------11| 
A|------------------------------------------------------------------------| 
D|------------------------------------------------------------------------|

e|------10--------12------13----------------9-----------10-------12-------| 
B|----10--10--------10------10-----------10---10----------10-------10-----| 
G|--10------10--10----10------10-------9---------9----9------9--------9---| 
D|12----------12--------12------12--11-------------11----------11-------11| 
A|------------------------------------------------------------------------| 
D|------------------------------------------------------------------------|

e|------10--------12------13----------------9-----------10-------12-------| 
B|----10--10--------10------10-----------10---10----------10-------10-----| 
G|--10------10--10----10------10-------9---------9----9------9--------9---| 
D|12----------12--------12------12--11-------------11----------11-------11| 
A|------------------------------------------------------------------------| 
D|------------------------------------------------------------------------|

e|------10--------12------13----------------9-----------10-------12-------| 
B|----10--10--------10------10-----------10---10----------10-------10-----| 
G|--10------10--10----10------10-------9---------9----9------9--------9---| 
D|12----------12--------12------12--11-------------11----------11-------11| 
A|------------------------------------------------------------------------| 
D|------------------------------------------------------------------------|

  |Tempo = 67 bpm
e|------------------------------------------------------------------------| 
B|------------------------------------------------------------------------| 
G|7---9--10---6---7--9----7---9--10---6---7--9----------------------------| 
D|------------------------------------------------------------------------| 
A|5---7--8----4---5--7----5---7--8----4---5--7----------------------------| 
D|------------------------------------------------------------------------| 
  H   Q  Q    H   Q  Q    H   Q  Q    H   Q  Q

e|------------------------------------------------------------------------| 
B|------------------------------------------------------------------------| 
G|7-7-7-7-7-7-7-7-9-9-9-9-10-10-10-10-6-6-6-6-6-6-6-6-7-7-7-7-9-9-9-9-----| 
D|------------------------------------------------------------------------| 
A|5-5-5-5-5-5-5-5-7-7-7-7-8--8--8--8--4-4-4-4-4-4-4-4-5-5-5-5-7-7-7-7-----| 
D|------------------------------------------------------------------------| 
  S->

e|------------------------------------------------------------------------| 
B|------------------------------------------------------------------------| 
G|7-7-7-7-7-7-7-7-9-9-9-9-10-10-10-10-6-6-6-6-6-6-6-6-7-7-7-7-9-9-9-9-----| 
D|------------------------------------------------------------------------| 
A|5-5-5-5-5-5-5-5-7-7-7-7-8--8--8--8--4-4-4-4-4-4-4-4-5-5-5-5-7-7-7-7-----| 
D|------------------------------------------------------------------------| 

e|------------------------------------------------------------------------| 
B|------------------------------------------------------------------------| 
G|7-7-7-7-7-7-7-7-9-9-9-9-10-10-10-10-6-6-6-6-6-6-6-6-7-7-7-7-9-9-9-9-----| 
D|------------------------------------------------------------------------| 
A|5-5-5-5-5-5-5-5-7-7-7-7-8--8--8--8--4-4-4-4-4-4-4-4-5-5-5-5-7-7-7-7-----| 
D|------------------------------------------------------------------------| 

e|------------------------------------------------------------------------| 
B|------------------------------------------------------------------------| 
G|7-7-7-7-7-7-7-7-9-9-9-9-10-10-10-10-6-6-6-6-6-6-6-6-7-7-7-7-9-9-9-9-----| 
D|------------------------------------------------------------------------| 
A|5-5-5-5-5-5-5-5-7-7-7-7-8--8--8--8--4-4-4-4-4-4-4-4-5-5-5-5-7-7-7-7-----| 
D|------------------------------------------------------------------------| 

e|------------------------------------------------------------------------| 
B|------------------------------------------------------------------------| 
G|7-7-7-7-7-7-7-7-9-9-9-9-10-10-10-10-6-6-6-6-6-6-6-6-7-7-7-7-9-9-9-9-----| 
D|------------------------------------------------------------------------| 
A|5-5-5-5-5-5-5-5-7-7-7-7-8--8--8--8--4-4-4-4-4-4-4-4-5-5-5-5-7-7-7-7-----| 
D|------------------------------------------------------------------------| 

                                      |Tempo = 60 bpm
e|------------------------------------------------------------------------| 
B|------------------------------------------------------------------------| 
G|7-7-7-7-7-7-7-7-9-9-9-9-10-10-10-10-6-6-6-6-6-6-6-6-7-7-7-7-9-9-9-9---7-| 
D|------------------------------------------------------------------------| 
A|5-5-5-5-5-5-5-5-7-7-7-7-8--8--8--8--4-4-4-4-4-4-4-4-5-5-5-5-7-7-7-7---5-| 
D|------------------------------------------------------------------------| 
                                                                        W
 

| / slide up 
| \ slide down 
| h hammer-on 
| p pull-off 
| ~ vibrato 
| + harmonic 
| x mute note
| W whole note
| H half note
| Q quarter note
| S sixteenth note
============================================================================
Tap to rate this tab
 
# A B C D E F G H I J K L M N O P Q R S T U V W X Y Z