Song name
# A B C D E F G H I J K L M N O P Q R S T U V W X Y Z

Avenged Sevenfold - Tension tab

this is my first ever tab, sounds rite,, he played and it is on youtube
( http://www.youtube.com/watch?v=JCQAyftUg2k&feature=PlayList&p=D7701E7C616C9776&playnext=
1&playnext_from=PL&index=11 )and it is basically the same so here you go

e-----------------------------------------------------------------------|
b-----------------------------------------------------------------------|
g/10---12b13---12b----12b13b12--10--9--12b13---12b---12b13b12---10--10--|
d-----------------------------------------------------------------------|
a-----------------------------------------------------------------------|
d-----------------------------------------------------------------------|

e---------------------------------------------------------------------|
b------------------------------------------------11b12--11b---10-10b--|
g----12---10---12b13--12b--12b13b12-----------------------------------|
d---------------------------------------------------------------------|
a---------------------------------------------------------------------|
d---------------------------------------------------------------------|

e----------------------------------------13----------------13---12b13b12---10b11b10--8--10--|
b-----------------------10---13---13b------13b----------------------------------------------|
g-12---10--12---12b-------------------------------------------------------------------------|
d-------------------------------------------------------------------------------------------|
a-------------------------------------------------------------------------------------------|
d-------------------------------------------------------------------------------------------|

e------------------------------------------------------------------------|
b------------------------------------------------------------------------|
g/10---12b13---12b-----12b13b12--10--9--12b13---12b---12b13b12---10--10--|
d------------------------------------------------------------------------|
a------------------------------------------------------------------------|
d------------------------------------------------------------------------|

e-------------------------------12---------------------------------|
b-----12---12b13----------------------13---------------------------|
g------------------------/12-------12-------10---12---10---9-------|
d------------------------------------------------------------------|
a------------------------------------------------------------------|
d------------------------------------------------------------------|

e-13-------13--15--17---19---17---15---17---15---------14--15---17---15----15--17--15--17--|b
b------------------------------------------------------------------------------------------|
g------14----------------------------------------------------------------------------------|
d------------------------------------------------------------------------------------------|
a------------------------------------------------------------------------------------------|
d------------------------------------------------------------------------------------------|

e----------------------------|
b---17b18b17-----15-----14b--|
g----------------------------|
d----------------------------|
a----------------------------|
d----------------------------|
Tap to rate this tab
# A B C D E F G H I J K L M N O P Q R S T U V W X Y Z