Song name
# A B C D E F G H I J K L M N O P Q R S T U V W X Y Z

Avenged Sevenfold - Mia tab

Guitar 1:
e|-------5------------0-1--------------------------------------------------|
B|---6-----6------3-------3----5---6-5---------2---------------------------|
G|-----7-----7------3------------5-----5-3-2-----3-------------------------|
D|-0-----------------------------------------3-----2-----------------------|
A|--------------1------------3---------------------------------------------|
D|-------------------------------------------------------------------------|

Guitar 2:
e|-------10-------------5---------------------0----------------------------|
B|---10----10-----6---8---6---6---8-6---3-1-----2--------------------------|
G|-----10----10-----7-----------7-----7-----2-----0------------------------|
D|--------------0----------------------------------------------------------|
A|-8------------------------7----------------------------------------------|
D|-------------------------------------------------------------------------|

Tap to rate this tab
 
# A B C D E F G H I J K L M N O P Q R S T U V W X Y Z