Song name
# A B C D E F G H I J K L M N O P Q R S T U V W X Y Z

Avenged Sevenfold - I Wont See You Tonight Part 1 tab

      Q     S  T  T  Q.      S  S. S.    Q    S  T  T  H          E
E||--13b--(13)-13----15----(15)15-17-|--18--(18)13----14b~------(14)-|
B||--------------15------------------|-------------15----------------|
G||----------------------------------|-------------------------------|
D||----------------------------------|-------------------------------|
A||----------------------------------|-------------------------------|
D||----------------------------------|-------------------------------|


   Q        S  S  H         E      Q     S  T   T   Q    S  S  S  S  S   S
--17brb---(17)---13~--------L--|--13b--(13)-------------------17----17h-18-|
--------------15---------------|-----------15p-13h-15--(15)-15----15-------|
-------------------------------|-------------------------------------------|
-------------------------------|-------------------------------------------|
-------------------------------|-------------------------------------------|
-------------------------------|-------------------------------------------|


   H.             S. S. S     Q       S  S  S  E      S  S  E   S  S  S
--15~------------15-17-18-|--20br----18-20-15-15pbr--15-13-----13----13b~-|
--------------------------|--------------------------------15-----15------|
--------------------------|-----------------------------------------------|
--------------------------|-----------------------------------------------|
--------------------------|-----------------------------------------------|
--------------------------|-----------------------------------------------|


   Q.     S.  T   S  S  S  S  S  S  S  S
--(13)--(13)-17/-18-17----18-17----18----|
-----------------------15-------15----15-|
-----------------------------------------|
-----------------------------------------|
-----------------------------------------|
-----------------------------------------|


   Q.       S.  T   S  S  S  S  S  S  S  S
--13b~----(13)--17/-18-17----18-17----18---|
-------------------------15-------15----15-|
-------------------------------------------|
-------------------------------------------|
-------------------------------------------|
-------------------------------------------|


   Q.       S.  T   S  S  S  S  S  S  S  S
---------------17/-18-17-------------------|
--17b~----(17)-----------15-18-15----------|
----------------------------------15-14-12-|
-------------------------------------------|
-------------------------------------------|
-------------------------------------------|


                                          |--3--|
   E.   S   S. S. E    T  T  T  Q      T  T  T  T     Q      H.
--------------------------------------------------|-----------------------||
----------------------18----18-------(18)---------|--18b~----(18)---------||
--11---11S-12-14-17b-----17----17b----17-15----15-|-----------------------||
--------------------------------------------17----|-----------------------||
--------------------------------------------------|-----------------------||
--------------------------------------------------|-----------------------||
Tap to rate this tab
 
# A B C D E F G H I J K L M N O P Q R S T U V W X Y Z