Song name
# A B C D E F G H I J K L M N O P Q R S T U V W X Y Z

Avenged Sevenfold - Chapter Four tab

Drop D

  1       2 e  + a  3  e  +  a  4  e  +  a    1
|-------------------------------------------|------|
|-------------------------13-17-13----------|------|
|----------------------14----------14-------|------|
|-------------10s12-15----------------13b14-|-r~---|
|---------0-8-------------------------------|------|
|-------------------------------------------|------|

 2 e  +  a  3  e  + a  4  e  +  a     1 e  +  a   2 e  + a  3
------12----15b17-r-12----------12-|-13----------17b18-rb18-r---|
---13------------------13----13----|----15----------------------|
---------14---------------14-------|-------15-17----------------|
-----------------------------------|----------------------------|
-----------------------------------|----------------------------|
-----------------------------------|----------------------------|

 e  +  a  4  e  +  a     1  e +  a  2  e  +  a   3 e  +  a  4  e  +  a
-13-------------------|-13-12----------------13-15-13-12-----------------|
----15----------------|-------13----------13-------------13--------------|
-------14-15-14-------|----------14----14-------------------12b14-r------|
----------------14-15-|-------------15------------------------------14---|
----------------------|--------------------------------------------------|
----------------------|--------------------------------------------------|

   1      2 e  + a  3  e  +  a  4  e  +  a    1
|-------------------------------------------|------|
|-------------------------13-17-13----------|------|
|----------------------14----------14-------|------|
|-15~---------10s12-15----------------13b14-|-r~---|
|---------0-8-------------------------------|------|
|-------------------------------------------|------|

 2 e  +  a  3  e  + a  4  e  +  a     1 e  +  a   2 e  + a  3
------12----15b17-r-12----------12-|-13----------17b18-rb18-r---|
---13------------------13----13----|----15----------------------|
---------14---------------14-------|-------15-17----------------|
-----------------------------------|----------------------------|
-----------------------------------|----------------------------|
-----------------------------------|----------------------------|

 e  +  a  4  e  +  a     1  e +  a  2  e  +  a   3 e  +  a    Random-crap
-13-------------------|-13-12----------------13-15-13-12--------12--14--12---|
----15----------------|-------13----------13-------------13---13--13--13-----|
-------14-15-14-------|----------14----14-------------------14-12-14-------|
----------------14-15-|-------------15---------------------------------------|
----------------------|------------------------------------------------------|
----------------------|------------------------------------------------------|
Tap to rate this tab
# A B C D E F G H I J K L M N O P Q R S T U V W X Y Z