Song name
# A B C D E F G H I J K L M N O P Q R S T U V W X Y Z

Avenged Sevenfold - Chapter Four tab

-------------------------------------------------------------------------------
	Chapter Four solo - Avenged Sevenfold
-------------------------------------------------------------------------------
Tabbed by:ScrewTheName

Tuning: DADGBe


e|-----------------------------------------------|
B|--------------------------13/17\13-------------|
G|-----------------------14---------14-----------|
D|--------------------12---------------14b15r14~-|
A|-----------------15----------------------------|
E|---------0-12/15-------------------------------|



e|--------12----15b17r15-12----------12-13----------17b18r17b18r17-13-------------------|
B|-----13-------------------13----13-------15-------------------------15----------------|
G|-/14-------14----------------14-------------15-17----------------------14b15r14-------|
D|--------------------------------------------------------------------------------14h15-|
A|--------------------------------------------------------------------------------------|
E|--------------------------------------------------------------------------------------|


e|-13-12----------------13-15-13-12---------------------|
B|-------13----------13-------------13------------------|
G|----------14----12-------------------12b14r12---------|
D|-------------15-------------------------------14h15\--|
A|------------------------------------------------------|
E|------------------------------------------------------|


e|--------------------------------------|
B|------------------13/17\13------------|
G|---------------14---------14----------|
D|------------12---------------14b15r14~|
A|---------15---------------------------|
E|-0-12/15------------------------------|


e|--------12----15b17r15-12----------12-13----------17b18r17b18r17-13-------------------|
B|-----13-------------------13----13-------15-------------------------15----------------|
G|-/14-------14----------------14-------------15-17----------------------14b15r14-------|
D|--------------------------------------------------------------------------------14h15-|
A|--------------------------------------------------------------------------------------|
E|--------------------------------------------------------------------------------------|

                                        (Something like this)
e|-13-12----------------13-15-13-12--------12----------12------------17----17-15b17r15~-|
B|-------13----------13-------------13---13--13------13--13-13/15-15----15--------------|
G|----------14----12-------------------12------14--14-----------------------------------|
D|-------------15--------------------------------15-------------------------------------|
A|--------------------------------------------------------------------------------------|
E|--------------------------------------------------------------------------------------|


Tap to rate this tab
 
# A B C D E F G H I J K L M N O P Q R S T U V W X Y Z