Song name
# A B C D E F G H I J K L M N O P Q R S T U V W X Y Z

Avenged Sevenfold - Seize The Day tab

This is the full solo of Seize the day. I tabbed it before i signed up here.

Tuning: Standard

/slide up
\slide down
*pinch harmonic
^bend full step
^- bend half step
^^bend up 1 half step
~virbrato
p pull off

Let's go!

solo starts at 2:50-2:51

e|--/13-12-----15-----------------------------------------|
B|---------13-----13------------------^18~~~18-18-20~~17~~|
G|--------------------12--15-15-14-14---------------------|
D|--------------------------------------------------------|
A|--------------------------------------------------------|
E|--------------------------------------------------------|


e|-------------------------------------------|
B|--13--15--18-18--15-13-15--10-11-13-13/15--|
G|-------------------------------------------|
D|-------------------------------------------|
A|-------------------------------------------|
E|-------------------------------------------|


e|---------------------18--18-17--20----17-17-17--15-15--15--|
B|----------15---18-------------18---------------------------|
G|-----15-----15---------------------------------------------|
D|--15---15--------15----15----------------------------------|
A|-----------------------------------------------------------|
E|-----------------------------------------------------------|


e|--13-15-17-17---10--13-10-------10---13-10----------------------|
B|--------------------------13-10------------13-10----------------|
G|------------------------------------------------12-10-----------|
D|------------------------------------------------------12-10-12--|
A|----------------------------------------------------------------|
E|----------------------------------------------------------------|


e|-------------------------------------13------/18-17v--\15-17--17-15-13-15v--|
B|-------------------------------11------15-----------------------------------|
G|--------------------------10-----10-----------------------------------------|
D|-----------------------------12---------------------------------------------|
A|----12/13/15/17/20---12/13--------------------------------------------------|
E|----------------------------------------------------------------------------|


E|---10--12-13-10-----10---6--8--8/10---10-10-10\8-8\6--6-5-6-5-6p5-----------|
B|-----------------10-----------------------------------------------6---------|
G|----------------------------------------------------------------------------|
D|----------------------------------------------------------------------4*----|
A|----------------------------------------------------------------------------|
E|----------------------------------------------------------------------------|

I'm not sure is it 4th or 6th fret on D string when is the pinch harmonic.
Rate or comment if u can :). Thanks
tabbed by fAKE
Tap to rate this tab
# A B C D E F G H I J K L M N O P Q R S T U V W X Y Z