Song name
# A B C D E F G H I J K L M N O P Q R S T U V W X Y Z

Avenged Sevenfold - Critical Acclaim tab

E|--/10-8-7-------------------15--------------------------------------------|
B|---------8----13---13-15-16----16-13----16\-------------------------------|
G|----------------12-------------------12-----------------------------------|
D|--------------------------------------------------------------------------|
A|--------------------------------------------------------------------------|
D|--------------------------------------------------------------------------|

E|-------------------------13-11-10------------------------10-11-10-8-10b^11--|
B|--/13-11-------11----11-13-------11--11-13-11-13b^15^16-13------------------|
G|---------14-10v---10----------------10--------------------------------------|
D|----------------------------------------------------------------------------|
A|----------------------------------------------------------------------------|
D|----------------------------------------------------------------------------|

E|--9-10-12-13-12-13-18-17p15-----------------------------------------------|
B|----------------------------19b^22----------------------------------------|
G|--------------------------------------------------------------------------|
D|--------------------------------------------------------------------------|
A|--------------------------------------------------------------------------|
D|--------------------------------------------------------------------------|

I figured this out by ear in about 20 minutes, and it sounds perfect to me, you can figure out the

vibrato as to where it should be, but this is an easy, fun solo.. enjoy!
Tap to rate this tab
# A B C D E F G H I J K L M N O P Q R S T U V W X Y Z