Song name
# A B C D E F G H I J K L M N O P Q R S T U V W X Y Z

Avenged Sevenfold - Remenissions tab

REMENISSIONS by Avenged Sevenfold

Tuning: Drop D (DADGBE)

Guitar: 1 (electric)
e|--------------------------------------------------------------------------|
B|--------------------------------------------------------------------------|
G|------------------------------------------slide---------------------------|
D|-0-----------0----------00000---------\\\\\\\\\\\\------------------------|
A|-0------5--3------------00000--5--1---\\\\\\\\\\\\\-----------------------|
D|-0-3b-0--------7-5-3-2--00000---------\\\\\\\\\\\\\\----------------------|

e|-----------------------------------------------------------------------|\
B|-----------------------------------------------------------------------| \
G|-------7-5-------------5-----7----------3------------------------------|  \2xs
D|-5-7-8-----8-7-5-4-5-7---4-0--------0-3---3-0---3-----2---5------------|  /
A|----------------------------------1-----------1---0-4---5--------------| /
E|-----------------------------------------------------------------------|/


e|---------------------------5----(5)-|
B|------7-------8-------8----5----(5)-|
G|------7-------7-------6----7----(7)-|
D|-00-0----00-0----00-0------7----(7)-|
A|-00-0----00-0----00-0---------------|
E|-00-0----00-0----00-0---------------|


e|----------------------------------------------------------------------------|\
B|----------------------------------------------------------------------------| \
G|-----------------------3----/7--3------/7-----------------------------------|  \2xs
D|-0----3p2-00-----3p2-0-3----/7--3------/7-2-xx-5-3-2-0-2-----8---5--10---7--|  /
A|-0-00-3p2-00-000-3p2-0-1-xxx/5--1-x-xxx/5-3-xx----------3-xx-8-x-5--10-x-7--| /
E|-0-00-3p2-00-000-3p2-0------------------------------------xx-8-x-5--10-x-7--|/
Pm   ..        ...         

e|-----------------|
B|-----------------|
G|-----------------|
D|-0-0-0-0---------|
A|-0-0-0-0---------|
E|-0-0-0-0---------|

e|----------------------------------------------------------------------------|\
B|----------------------------------------------------------------------------| \
G|-----------------------3----/7--3------/7-----------------------------------|  \2xs
D|-0----3p2-00-----3p2-0-3----/7--3------/7-2-xx-5-3-2-0-2-----8---5--10---7--|  /
A|-0-00-3p2-00-000-3p2-0-1-xxx/5--1-x-xxx/5-3-xx----------3-xx-8-x-5--10-x-7--| /
E|-0-00-3p2-00-000-3p2-0------------------------------------xx-8-x-5--10-x-7--|/
Pm   ..        ...         





e|-11-12--------------11-12-----------------|\
B|-15-16--------------15-16-----------------| \
G|------------------------------------------|  \2xs
D|------------------------------------------|  /
A|-------00-0-000-000-------00-0-000-000-000| /
E|-------00-0-000-000-------00-0-000-000-000|/

e|---------------------------------------------------------------------------|
B|---------------------------------------------------------------------------|
G|---------------------------------------------------------------------------|
D|--0~~----8~~---5~~---10~~---3~~---7~~---10~~~~~----------------------------|
A|--0~~----8~~---5~~---10~~---3~~---7~~---10~~~~~----------------------------|
E|--0~~----8~~---5~~---10~~---3~~---7~~---10~~~~~----------------------------|

Guitar: 2 (Nylon Acoustic preferable) 
e|-5-----------------10-----------------------------------------3--8-5-------|
B|-6---6-8-10------11---8-10-11------11--------6-5--------------6------6-----|
G|-7-------------12--------------------------5----------5/7---5-5------------|
D|-7-7---------12-----------------14---15--------------------7---------------|
A|-----------10-----------------15---------8-------3-3------8----------------|
E|---------------------------------------------------------------------------|

e|-------------------------------13-12-------------------------------------9-|
B|-/5-6-5h6p5-------8-10-11-/13-----------------------------------6-5-8-10---|
G|------------5/-7-----------------------------------------------------------|
D|-------------------------------------------15-14-12-14-15-----7------------|
A|-----------------------------------------15---------------15-8-------------|
E|--------------------------------------17-----------------------------------|

Guitar: 1
e|----------------------------------------------------------------------------|
B|----------------------------------------------------------------------------|
G|----------------------------------------------------------------------------|
D|--0------------------5------------------10----------------------------------|
A|--0-0000000000000000-5-5555555555555555-10-10101010101010101010101010101010-|
E|--0-0000000000000000-5-5555555555555555-10-10101010101010101010101010101010-|

|-----------------------------------------------------------------------------------------------|
|-----------------------------------------------------------------------------------------------|
|-----------------------------------------------------------------------------------------------|
|5----------8-----------2------------------5------------------10--------------------------------|
|5-55555555-8-88888888--2-2222222222222222-5-5555555555555555-1010101010101010101010101010101010|
|5-55555555-8-88888888--2-2222222222222222-5-5555555555555555-1010101010101010101010101010101010|

e|-----------------------------------|  |--------------------------------|\
B|-----------------------------------|  |--------------------------------| \
G|------------77-77-77-77------------|  |--------------3----5------------|  \3xs
D|-8~~~-10~~~-77-77-77-77--88---1010-|  |-00-2-3-2-0---3----5----3-2-----|  /
A|-8~~~-10~~~-55-55-55-55--88---1010-|  |------------0-1----3----3-2-----| /
E|-8~~~-10~~~--------------88---1010-|  |------------------------3-2-----|/

e|-----------------------------|  |----------------------------------------------|
B|-----------------------------|  |----------------------------------------------|
G|--------------3---5--5-2-5-7-|  |---7--9-10--9---3---7-10-15---7-9--14---------|
D|-00-2-3-2-0---3---5--5-2-5-7-|  |---------------------------------------2x-----|
A|------------0-1---3--3-0-3-5-|  |---5--7--8--7---1---5--8-13---5-7--12---------|
E|-----------------------------|  |----------------------------------------------|

e|--------------------------|
B|--------------------------|
G|-9-10/-7---9-3------------|
D|--------------------------|
A|-7--8/-5---7-1------------|
E|--------------------------|

e|-------------|\
B|-------------| \
G|-------------|  \6xs
D|--0~----0~---|  /
A|--0~-00-0~---| /
E|--0~-00-0~---|/


e|---------|
B|-2-------|
G|---3-2---|
D|---------|
A|---------|
E|---------|

e|--------------|\
B|--------------| \
G|--------------|  \4xs
D|-0-1-2-3------|  /
A|-0-1-2-3------| /
E|-0-1-2-3------|/

I havenít gotten any further than this, I have half the solo down but I think it 
needs alittle work.
Tap to rate this tab
 
# A B C D E F G H I J K L M N O P Q R S T U V W X Y Z