Song name
# A B C D E F G H I J K L M N O P Q R S T U V W X Y Z

Avenged Sevenfold - Nightmare tab

-----------------------------------------------------------------------------
			     Nightmare - Avenged Sevenfold
-----------------------------------------------------------------------------
Tabbed by: Brann3232



(Intro)

|-------------------------------------------------------|
|-------10-10-9-9-8-8---------------------8b------------|
|--/7-7------------10-7----7-------7-9------------------| 4X
|-----------------------10------/8----------------------|
|-------------------------------------------------------|
|-------------------------------------------------------|

|----------------------------------------------------|
|----8b-10-11-11--11-11-10------13b---15b------------|
|--------------------------12------------------------|
|----------------------------------------------------|
|----------------------------------------------------|
|----------------------------------------------------|

(Pre-Verse)
  |----------------|
  |----------------|
  |------(Struming)|
  |----------------|
  |----------------|
  |-0-0-0-0-0-0-0-0|
PM. . . . . . . . .

(verse 1)
|----------------------------------------------------|
|----------------------------------------------------|
|----------------------------------------------------|
|---3~0--------------3~0-------------3~0-------------|
|---3~0--------------3~0-------------3~0-------------|
|---3~0--0-0-0-0-0-0-3~0-0-0-0-0-0-0-3~0-0-0-0-0-0-0-|
PM       . . . . .       . . . . . .     . . . . . .

|-------------------------|
|-------------------------|
|-------------------------|
|-------------------------|
|-------------------------|
|---6-3-6-3--3-0-3-0------|
PM  . . . .  . . . . 

  |-------------------|   x3
  |-------------------|
  |-------------------|
  |-----0-----0---0---|
  |-----0-----0---0---|
  |-0-0-0-0-0-0-0-0---|
PM  . .   . .   . 

Pre-Chorus
  |--------------------------------|
  |--------------------------------|
  |--------------------------------|
  |--------------------------------|
  |--------------------------------|
  |-6-3-6-3-3-0-3-0-6-3-6-3-3-0-3-0|
PM  . . . . . . . . . . . . . . . . 
  Chorus
|-----------------------------|
|-----------------------------|
|---7---7-5--5-10--10-3---3---| 2X
|---7---7-5--5-10--10-3---3---|
|---5---5-3--3-8---8--1---1---|
|-----------------------------|

|-------------|
|-------------|
|-2-2-2-2-2-2-|
|-2-2-2-2-2-2-|
|-0-0-0-0-0-0-|
|-------------|

  
  
     Sorry I didn't find the solo but I'm working on it..
     Hope you'll do good with my tabs
     There might be some mistakes but it's my first tab so lol
     
    A7X foREVer....R.I.P. Jimmy "The Rev" Sullivan



Repeat:
Pre-Verse 
Verse
Chorus 


************************************

| /   slide up
| \   slide down
| h   hammer-on
| p   pull-off
| ~   vibrato
| +   harmonic
| x   Mute note
| b   Bend
| pb  Pre-bend
| br  Bend release
| pbr Pre-bend release
| brb Bend release bend

************************************
Tap to rate this tab
 
# A B C D E F G H I J K L M N O P Q R S T U V W X Y Z