Song name
# A B C D E F G H I J K L M N O P Q R S T U V W X Y Z

Avenged Sevenfold - Tension tab

Tension - Avenged Sevenfold
Drop D

Haven't seen a full tab of this yet so here it is.
I'm 100% about the solo
enjoy

INTRO VERSE (Bass and drums)

CHORUS 0:48

Rhythm guitar
e|------------------------------------------------------------------|
B|------------------------------------------------------------------|
G|-7777777777777777666666666666666655555555555555554444444444444444-|
D|-xxxxxxxxxxxxxxxxxxxxxxxxxxxxxxxxxxxxxxxxxxxxxxxxxxxxxxxxxxxxxxxx-|
A|-5555555555555555444444444444444433333333333333332222222222222222-|
D

e|------------------------------------------------------------------|
B|------------------------------------------------------------------|
G|-3333333333333333------------------6666666666666666/9999\---------|
D|-xxxxxxxxxxxxxxxx-3333333333333333-xxxxxxxxxxxxxxxx-xxxx\---------|
A|-1111111111111111-xxxxxxxxxxxxxxxx-4444444444444444/7777\---------|
D|------------------3333333333333333--------------------------------|

   x2


Lead guitar1 0:48
e|------------------------------------------------------------------|
B|------------------------------------------------------------------|
G|------------------------------------------------------------------|
D|----------7777---------------7777---------------5555--------------|
A|-55555555------5555-44444444------4444-33333333------3333-2222222-|
D|------------------------------------------------------------------|
   ******** **** **** ******** **** **** ******** **** **** *******

e|------------------------------------------------------------------|
B|------------------------------------------------------------------|
G|------------------------------------------------------------------|
D|---5555-3333----------2222-3333-----------------------------------|
A|-2-----------11111111--------------------0000-3333--44444444-5555-|
D|--------------------------------33333333--------------------------|
   * **** **** ******** **** **** ******** **** ****  ******** ****   

e|------------------------|
B|------------------------|
G|------------------------|
D|---------------55555555-| x2
A|-5555-77777777----------|
D|------------------------|
   **** ******** ********

VERSE: 1:15 (Bass and drums)

REPEAT CHORUS x2: 1:39


2:07

Rhythm guitar
e|----------------------------------------------------------------|
B|----------------------------------------------------------------|
G|----------------------------------------------------------------|
D|----------------------------------------------------------------|
A|-0---------0------------0-----------0---------------3-----------|
D|-0---------0------------0-----------0---------------3-----------|


e|----------------------------------------------------------------|
B|----------------------------------------------------------------|
G|-7~~------7/9~~---------7~~--------7/9~~------------------------|
D|----------------------------------------------------------------|
A|----------------------------------------------------------------|
D|----------------------------------------------------------------|
              with feedback


BRIDGE: 2:22

Rhythm guitar (clean)
e|----------------------------------------------------------------|
B|----------------------------------------------------------------|
G|-----------------------------8-8-8-8-8-8---3-3-3-3-3-3-3-3-3----|
D|--------------5-5-5-5-5-5-5--8-8-8-8-8-8---3-3-3-3-3-3-3-3-3----|
A|-3-3-3-3-3-3--3-3-3-3-3-3-3--6-6-6-6-6-6---1-1-1-1-1-1-1-1-1----|
D|-3-3-3-3-3-3--2-2-2-2-2-2-2-------------------------------------|


e|----------------------------------------------------------------|
B|----------------------------------------------------------------|
G|----------------------------------------------------------------|
D|----------------------------------------------------------------|
A|-3-3-3-3-3-3----------------------------------------------------|
D|-3-3-3-3-3-3----------------------------------------------------|


Rhythm (distorted)
e|----------------------------------------------------------------|
B|----------------------------------------------------------------|
G|-7----5----3----------------------------------------------------|
D|-7----5----3----------------------------------------------------|
A|-5----3----1----------------------------------------------------|
D|----------------------------------------------------------------|

REPEAT BRIDGE (2:43)


SOLO: 3:05
Lead guitar1
e|----------------------------------------------------------------|
B|----------------------------------------------------------------|
G|-/10~-12b14---12b14-12b14r12-10\9~-9~-12b14-12b14r12-10~-10~-12-|
D|----------------------------------------------------------------|
A|----------------------------------------------------------------|
D|----------------------------------------------------------------|


e|----------------------------------------------------------------|
B|-----------------------------11b13r11~-10b11r10b11r10-----------|
G|-10-12b14--12b14-12b14r12-10--------------------------12-10-12b-|
D|----------------------------------------------------------------|
A|----------------------------------------------------------------|
D|----------------------------------------------------------------|


e|------10------13-------/13-12b13r12-----------------------------|
B|----10---13b15--r13~~---------------15b17r15-13-15~-17-17b18~---|
G|-14-------------------------------------------------------------|
D|----------------------------------------------------------------|
A|----------------------------------------------------------------|
D|----------------------------------------------------------------|

e|----13--13----------------------------13--13-15~-17-17b19r17----|
B|----------13b15~-------------------/13--13----------------------|
G|-/12--12------------10h12p10\9~-7-------------------------------|
D|----------------------------------------------------------------|
A|----------------------------------------------------------------|
D|----------------------------------------------------------------|


e|-15h17-15~--/14-15-17-----------12--------------------12-12-----|
B|----------------------17PH~----------17b19~--17b19r17----15b19r-|
G|-----------------------------/14--14----------------------------|
D|----------------------------------------------------------------|
A|----------------------------------------------------------------|
D|----------------------------------------------------------------|


e|----------------------------------------------------------------|
B|-15~~-----------------------------------------------------------|
G|----------------------------------------------------------------|
D|----------------------------------------------------------------|
A|----------------------------------------------------------------|
D|----------------------------------------------------------------|


REPEAT CHORUS X2 (3:38)




Rhythm guitar during outro: 4:05
e|------------------------------------------------------------------|
B|------------------------------------------------------------------|
G|-7777777777777777666666666666666655555555555555554444444444444444-|
D|-xxxxxxxxxxxxxxxxxxxxxxxxxxxxxxxxxxxxxxxxxxxxxxxxxxxxxxxxxxxxxxxx-|
A|-5555555555555555444444444444444433333333333333332222222222222222-|
D

e|------------------------------------------------------------------|
B|------------------------------------------------------------------|
G|-3333333333333333------------------6666666666666666/9999\---------|
D|-xxxxxxxxxxxxxxxx-3333333333333333-xxxxxxxxxxxxxxxx-xxxx\---------|
A|-1111111111111111-xxxxxxxxxxxxxxxx-4444444444444444/7777\---------|
D|------------------3333333333333333--------------------------------|

   
Lead guitar1 4:05
e|------------------------------------------------------------------|
B|------------------------------------------------------------------|
G|------------------------------------------------------------------|
D|----------7777---------------7777---------------5555--------------|
A|-55555555------5555-44444444------4444-33333333------3333-2222222-|
D|------------------------------------------------------------------|
   ******** **** **** ******** **** **** ******** **** **** *******

e|------------------------------------------------------------------|
B|------------------------------------------------------------------|
G|------------------------------------------------------------------|
D|---5555-3333----------2222-3333-----------------------------------|
A|-2-----------11111111--------------------0000-3333--44444444-5555-|
D|--------------------------------33333333--------------------------|
   * **** **** ******** **** **** ******** **** ****  ******** ****   

e|------------------------|
B|------------------------|
G|------------------------|
D|---------------55555555-| Repeat until fade-out.
A|-5555-77777777----------|
D|------------------------|
   **** ******** ******** 


Lead guitar2 4:05

e|-------------------181818-1717171717----------17171717-18181818---|
B|-15151515-18181818-------------------14141414---------------------|
G|------------------------------------------------------------------|
D|------------------------------------------------------------------|
A|------------------------------------------------------------------|
D|------------------------------------------------------------------|

e|-17171717-15151515-13131313-12121212-13131313-10101010-12121212---|
B|------------------------------------------------------------------|
G|------------------------------------------------------------------|
D|------------------------------------------------------------------|
A|------------------------------------------------------------------|
D|------------------------------------------------------------------|

e|-13131313-12121212-10101010-12121212-13131313-15151515-13131313---|
B|------------------------------------------------------------------|
G|------------------------------------------------------------------|
D|------------------------------------------------------------------|
A|------------------------------------------------------------------|
D|------------------------------------------------------------------|

e|-15151515-17171717-15151515-101010/131313\101010/131313\101010/---|
B|------------------------------------------------------------------|
G|------------------------------------------------------------------|
D|------------------------------------------------------------------|
A|------------------------------------------------------------------|
D|------------------------------------------------------------------|

e|-131313-1515-1717-1818-1717-15-17---------------------------------|
B|------------------------------------------------------------------|
G|------------------------------------------------------------------|
D|------------------------------------------------------------------|
A|------------------------------------------------------------------|
D|------------------------------------------------------------------|

Reapeat until fade-out

end
Tap to rate this tab
# A B C D E F G H I J K L M N O P Q R S T U V W X Y Z