Song name
# A B C D E F G H I J K L M N O P Q R S T U V W X Y Z

Avenged Sevenfold - Demons tab

Demons Solo. 

Drop D Tuning; Advanced difficulty. 

Synyster Gates


|-17-13--------------------13------17-13-------------------13--18~-|
|------15----------------15----16~------15----------------15-------|
|--------14------------14-----------------14------------14---------|
|----------15--------15---------------------15--------15-----------|
|------------17-16-17-------------------------17-16-17-------------|
|------------------------------------------------------------------|

Zacky Vengeance plays this after each sweep.

|-------10-18-15-----|
|-----11--------16---|
|---10------------15-|
|--------------------|
|--------------------|
|--------------------|

Tremolo Picked Harmony

Synyster Gates

|---------------------------------------------------|
|-----11-15-11-----10-15-10----11-15-11----14-17-14-|
|--12------------11----------12----------14---------|
|---------------------------------------------------|
|---------------------------------------------------|
|---------------------------------------------------|

Zacky Vengeance

|---------------------------------------------------|
|---15-20-15----13-19-13----15-20-15-----17-20-17---|
|-15----------14----------15-----------17-----------|
|---------------------------------------------------|
|---------------------------------------------------|
|---------------------------------------------------|
Tap to rate this tab
 
# A B C D E F G H I J K L M N O P Q R S T U V W X Y Z