Avenged Sevenfold - Nightmare tab

I found this on youtube and this is VERY close to the real version. the ones i found
i dont like and are WAY to complicated and i am a beginner guitar player and this is the
solo i have learned. All credits go to XMetaLxManiacx on youtube and he perfected the 
Here it is and have fun with it!!! A7X FOREVER!!!!


E||-/17~-------------------13-14-15-16~----------------10-12-14-15~-15b-13---|
B||---------------13-14-15---------------------11-13-14----------------------|
G||------12-14-15----------------------11-13-14------------------------------|
D||--------------------------------------------------------------------------|
A||--------------------------------------------------------------------------|
D||--------------------------------------------------------------------------|

E||-17-13-------------17-13---------------------------17-18-17----|
B||-------15-14------------15--------------------15-18------------|
G||-------------15-14--------14---------14-15-14------------------|
D||----------------------------15-----15--------------------------|
A||------------------------------16-17----------------------------|
D||---------------------------------------------------------------|

E||----------------------------------------------|
B||-20b-----18--17--18--20---20b~----------------|
G||-----19---------------------------------------|
D||----------------------------------------------|
A||----------------------------------------------|
D||----------------------------------------------|

E||--------------------------------------------------------------|
B||--15--/22--13---/24----12----/18----10----/15----10---9---6---|
G||--------------------------------------------------------------|
D||--------------------------------------------------------------|
A||--------------Tremolo Pick All Notes Here---------------------|
D||--------------------------------------------------------------|

E||----------------------------------10-13-/20-17------------|
B||------------------------------10---------------20-19-18-17|
G||--------------------9-10-9-10-----------------------------|
D||----------9-10-9-10---------------------------------------|
A||8-12-8-12-------------------------------------------------|
D||----------------------------------------------------------|

E||-------18~-17~--------------15-16-17-18~--18-17-16-15-------------------|
B||-19-18---------18~-15-17-18---------------------------19-18-17~-15-17-18|
G||------------------------------------------------------------------------|
D||------------------------------------------------------------------------|
A||------------------------------------------------------------------------|
D||------------------------------------------------------------------------|
Tap to rate this tab
 
# A B C D E F G H I J K L M N O P Q R S T U V W X Y Z