Song name
# A B C D E F G H I J K L M N O P Q R S T U V W X Y Z

Avenged Sevenfold - Nightmare tab

This is JUST the lead guitarest. Not the rythem!!!

I hope you enjoy! I created this account 5 minutes ago just so i can submit this 
so comment plenty please!!!




Avenged Sevenfold – Nightmare					Tabs By Brad M.
Drop D							
Warning!! When it repeats a lot do NOT just do the amount of 0 I give you. Just 
listen to the beat!			
	
Lead guitar1 0:34
e|-----------------------------------------------------------------------|
B|-----------------------------------------------------------------------|
G|-----------------------------------------------------------------------|
D|-----/7~7~-6~6~-5-5~-----------------5-7-8~----------------------------| 
A|-5-5-----------------8-5-0-/5----4-7-----------------------------------|
D|------------------------------/7---------------------------------------| 
   x3

Lead guitar1 0:50
e|-----------------------------------------------------------------------|
B|-----------------------------------------------------------------------|
G|-------------------------------------------------------/7-5~-4-5/9~----|
D|-----/7~7~-6~6~-5-5~-----------------5-6-7-8~8~-7-6-5~-----------------| 
A|-5-5-----------------8-5-0-/5----4-7-----------------------------------|
D|------------------------------/7---------------------------------------| 
   x1


Rhythm guitar 1:03
e|-----------------------------------------------|
B|-----------------------------------------------|
G|-----------------------------------------------|
D|-----------------------------------------------|
A|-----------------------------------------------|
D|-0-0-0-0-0-0-0-0-0-0-0-0-0-0-0-0-0-0-0-0-0-0-0-|


VERSE: 1:10
Lead & rhythm
e|------------------|      e|---------------------------------|
B|------------------|      B|---------------------------------|
G|------------------|      G|---------------------------------|
D|------------------| X3   D|---------------------------------| Repeat all
A|----0-------------|      A|---------------------------------|   x2
D|-3b-0-0-0-0-0-0-0-|      D|-6-0-5-0-6-3-0-3-6-0-5-0-6-3-0-3-


Lead guitar2: 1:25
e|-------------------------------------|
B|-------------------------------------|
G|-------------------------------------|
D|-7---6---5-------------7---6---5-----| X2
A|-------------------------------------|
D|-----------0300030-------------------|








CHORUS: 1:42

Lead & Rhythm
e|------------------------------------------------------------------------|
B|----3-------------3-----------------------------------------------------|
G|----2-------------2----------3------------2--2--2--2--2--2--2--2--------|
D|-0--0--5--3----0--0--5--3----3------------2--2--2--2--2--2--2--2--------|
A|-0-----3--3----0-----3--3----1------------0--0--0--0--0--0--0--0--------|
D|-0--------3----0--------3-----------------------------------------------|


Rhythm guitar 2:00
e|-----------------------------------------------------|
B|-----------------------------------------------------|
G|-----------------------------------------------------|
D|-----------------------------------------------------|
A|-----------------------------------------------------|
D|-0-0-0-0-0-0-0-0-0-0-0-0-0-0-0-0-0-0-0-0-0-0-0-0-0-0-|
   
			Repeat some parts…

SOLO: 3:16
Rhythm is underneath the solos

Lead guitar1 3:16
e|-/17-17-16-16-15-15-13--------------------10-12-13-----/17-17-16-16-15-15-|
B|-----------------------15~-------------12---------------------------------|
G|---------------------------------10-13------------------------------------|
D|-----------------------------/12------------------------------------------|
A|--------------------------------------------------------------------------|
D|--------------------------------------------------------------------------|



e|-13-------------------------------------------------------------------|
B|----15--15~------------12-13-14-15~15-14-13-12~-/18~-17~-16-17/20~----|
G|------14---------10-13------------------------------------------------|
D|-------------/12------------------------------------------------------|
A|----------------------------------------------------------------------|
D|----------------------------------------------------------------------|

3:32

e|-17~--------------------14-15-17-16~---------------------14-15-17-15~----|
B|---------------14-15-17-------------------------14-15-17-----------------|
G|------14-15-17-------------------------14-15-17--------------------------|
D|-------------------------------------------------------------------------|
A|-------------------------------------------------------------------------|
D|-------------------------------------------------------------------------|






e|-15b17r15-13~--17-13-------------17-13-----------------------------17--|
B|---------------------15-14-------------15--------------------15-17-----|
G|---------------------------15-14----------14-------14-15-14~-----------|
D|---------------------------------------------12-15---------------------|
A|-----------------------------------------------------------------------|
D|-----------------------------------------------------------------------|




e|-18-17~--15b17r15----------------------------|
B|------------------15-/18-17-18-20-20b22~~----|
G|---------------------------------------------|
D|---------------------------------------------|
A|---------------------------------------------|
D|---------------------------------------------|

Lead guitar1 3:47
e|---------------------------------------------------------------------|
B|-15===/22\13===/20\12===/19\10101010-13131313-9999-8888-6666---------|
G|---------------------------------------------------------------------|
D|---------------------------------------------------------------------|
A|---------------------------------------------------------------------|
D|---------------------------------------------------------------------|


Lead guitar1
e|----------------------------------13/20-17-----------------------------|
B|-------------------------------------------18-17-18-17-----------------|
G|---------------------------9-10-9----------------------19-18-19~-18~---|
D|---------5-6-5-6-9-10-9-10---------------------------------------------|
A|-5-8-5-8---------------------------------------------------------------|
D|-----------------------------------------------------------------------|


Lead guitar1
e|--------------15-16-17-17~-16-15-----------------------15-16-17-18-17~-|
B|-15~-15-16-18--------------------18-16-15-15~-15-16-18-----------------|
G|-----------------------------------------------------------------------|
D|-----------------------------------------------------------------------|
A|-----------------------------------------------------------------------|
D|-----------------------------------------------------------------------|

Lead guitar1 4:02    (Evil Laugh)
e|-----------------------------|
B|-----------------------------|
G|-----------------------------|
D|-10~-10~-9~-8~---------------|
A|---------------8-5-0-5~------|
D|-----------------------------|

                            (bar dip then rise)





3:32
e|---------------------------|   |--------------------------|
B|---------------------------|   |--------------------------|
G|---------------------------|   |--------------------------|
D|---------------------------|X3 |-3-3-5-5---5-5---7-7------|
A|-0-----3-0-0----3-0--------|   |-1-1-2-2/3-3-3/4-4-4------|
D|-0--00-3-0-0-00-3-0-00-3b--|   |--------------------------|
      



3:47
e|---------------------------|   |---------------------------------|
B|---------------------------|   |---------------------------------|
G|---------------------------|   |---------------------------------|
D|---------------------------|X3 |-3-3-5-5---5-5---7-7-------------|
A|-0-----3-0-0----3-0--------|   |-1-1-2-2/3-3-3/4-4-4-------------| 
D|-0--00-3-0-0-00-3-0-00-3b--|   |---------------------------------|
      **       **     **

4:09   "Fight! Not to fail..."
e|-----------------------------------------------------|
B|-----------------------------------------------------|
G|-----------------------------------------------------|   (Keep goin)
D|-----------------------------------------------------|
A|-0--------0-----0-----0-----0---0----0-----0-----0---|      
D|-0--0-0-0-0-0-0-0-0-0-0-0-0-0-0-0-0--0-0-0-0-0-0-0-0-| 
          


BREAKDOWN 4:28
Lead guitar1
e|----------------------------------|
B|----------------------------------|
G|----------------------------------|
D|-10~-10~-9~-8~--------------------|
A|---------------8-5-0-5~-----------|
D|----------------------------------|
                            (bar dip then rise)

Lead & rhythm 4:35  "Down. Feel the fire..."
e|----------------------------------------------------------------|
B|----------------------------------------------------------------|
G|----------------------------------------------------------------|
D|----------------------------------------------------------------| x2
A|-0--------0-----0-----0-----0---0-----0-----0---0-----0-----0---|      
D|-0--0-0-0-0-0-0-0-0-0-0-0-0-0-0-0-0-0-0-0-0-0-0-0-0-0-0-0-0-0-0-|


Lead & rhythm 4:50
e|------------------------------------------------|
B|------------------------------------------------|
G|------------------------------------------------|
D|-3--3--3--3--3--3--3--3--5--5--5--5--5--5--5--5-|
A|-1--1--1--1--1--1--1--1--3--3--3--3--3--3--3--3-| X3
D|------------------------------------------------|




e|------------------------------------------------|
B|------------------------------------------------|    
G|------------------------------------------------|    
D|-3--3--3--3--5--5--5--5--5--5--5--5--7--7--7--7-|
A|-1--1--1--1--2--2--2--2--3--3--3--3--4--4--4--4-|
D|------------------------------------------------|
   x1

e|-------------------------------------|
B|-------------------------------------|
G|-------------------------------------|
D|-------------------------------------|
A|-------------------------------------|
D|-0-0-0-0-0-0-0-0-0-0-0-0-0-0-0-0-0-0-|

				    
 				    | X2
              			    |  	
CHORUS: 5:27	                   \/    
                         	   
e|------------------------------------------------------------------------|
B|----3-------------3-----------------------------------------------------|
G|----2-------------2----------3------------2--2--2--2--2--2--2--2--------|
D|-0--0--5--3----0--0--5--3----3------------2--2--2--2--2--2--2--2--------|
A|-0-----3--3----0-----3--3----1------------0--0--0--0--0--0--0--0--------|
D|-0--------3----0--------3-----------------------------------------------|

end
Tap to rate this tab
 
# A B C D E F G H I J K L M N O P Q R S T U V W X Y Z