Avenged Sevenfold - Buried Alive tab

AVENGED SEVENFOLD
BURIED ALIVE
tuning: drop D (e B G D A D)
any questions, corrections etc email wasssup@hotmail.co.uk
this is only a tab of what is played I.E no timings etc.

its only tabbed for 1 guitar so far, ill add the other at a later date

INTRO
e-----8----10p8----8----7---5----------------------------|
B-/10---10------10----8---8---8/10~--3-5-3-6p5-3-5-------|
G--------------------------------------------------------|
D--------------------------------------------------------|
A---7-----------------7--------------5-------------5-3-2-|
E--------------------------------------------------------|

e---0---------------|
B-1---1-3/1-0-1-0---|
G-----------------0-| 
D-------------------|
A-0-----------------|
E-------------------|

e-----8----10p8----8----7---5------------------------3-5-4h5p4p3h4-5-|
B-/10---10------10----8---8---8/10~--3-5-3-6p5-3-5-6-----------------|
G--------------------------------------------------------------------|
D--------------------------------------------------------------------|
A---7-----------------7--------------5-------------------------------|
E--------------------------------------------------------------------|

INTRO SOLO
e-----------------------------------------------------------------|
B-/10--8-10-\3-1-3-1-----/10-8-10-\3-1h3-1-/10--8-10-/3-1-3-1-----|
G--------------------2-0--------------------------------------2-0-|
D-----------------------------------------------------------------|
A-----------------------------------------------------------------|
E-----------------------------------------------------------------|

e----------------|
B-7-8-7-5-5--5---|
G----------5--5--| X2
D-----------7--7-|
A----------------|
E----------------|

e---------------24---------------24----|
B--------5-5--------------5-5-------22-|
G-/5--4------2/----/5--4------2/-------|
D--------------------------------------|
A--------------------------------------|
E--------------------------------------|

e----------10-----------------------------10------------------------------|
B-13--1313---13-------------------13-1313---13----------------------------|
G--------------12--14--1414--13~--------------12--14-1416-17-16161617-19~-|
D--------------------------14---------------------------------------------|
A-------------------------------------------------------------------------|
E-------------------------------------------------------------------------|

e--------------------------/17-15-------------------|
B-----13-12-13----13-12-13--------18----------------|
G-1414---------12--------------------17-15-17p15p14-|
D---------------------------------------------------|
A---------------------------------------------------|
E---------------------------------------------------|

e--------------------------/13-15-13---------------------------|
B-----13-12-13----13-12-13-----------15b17r15--171513----------|
G-1414---------12------------------------------------16141214~-|
D--------------------------------------------------------------|
A--------------------------------------------------------------|
E--------------------------------------------------------------|

VERSE
e-----0-------0--------1------0-------|
B---1--1---1-1--1----1--1----3--------|
G----2--2---0----0--0-0--0--1---------| X4
D-----------------23-------2----20----|
A-0------23-----------------------320-|
E-------------------------------------|

e-/13-----12-----10----------|
B--------------------8101213-|
G----------------------------| X2
D----------------------------|
A----------------------------|
E----------------------------|

CHORUS
im not sure this is totally right, any help would be appreciated
e----------------------------------------------------|
B----------------------------------------------------|
G-2--2-----------------2--2-----------------9-7-10-9-|
D-2--2-2-5--5-5-6666-6-2--2-2-5--5-5-6666-6-9-7-10-9-|
A-0--0-2-3--3-3-2222-3-0--0-2-3--3-3-2222-3-7-5--8-7-|
E------2-3--3-3-2222-2------2-3--3-3-2222-2----------|

e-------------------------------------------------------|
B-------------------------------------------------------|
G-2--2-----------------2--2------------9---9---9-7-10-9-|
D-2--2-2-5--5-5-6666-6-2--2-2-5-6666-6-9---9---9-7-10-9-|
A-0--0-2-3--3-3-2222-3-0--0-2-3-2222-3-7---7---7-5--8-7-|
E------2-3--3-3-2222-2------2-3-2222-2------------------|

BRIDGE
e----------10----------------------------10--------------------------------|
B-13--1313---13------------------13-1313---13------------------------------|
G--------------12--14-1414--13~--------------12--14-1416-17-1616161719-17~-|
D-------------------------14-----------------------------------------------|
A--------------------------------------------------------------------------|
E--------------------------------------------------------------------------|

VERSE
e-----0-------0--------1------0-------|
B---1--1---1-1--1----1--1----3--------|
G----2--2---0----0--0-0--0--1---------| X4
D-----------------23-------2----20----|
A-0------23-----------------------320-|
E-------------------------------------|

e-/13-----12-----10----------|
B--------------------8101213-|
G----------------------------| X2
D----------------------------|
A----------------------------|
E----------------------------|

CHORUS
e----------------------------------------------------|
B----------------------------------------------------|
G-2--2-----------------2--2-----------------9-7-10-9-|
D-2--2-2-5--5-5-6666-6-2--2-2-5--5-5-6666-6-9-7-10-9-|
A-0--0-2-3--3-3-2222-3-0--0-2-3--3-3-2222-3-7-5--8-7-|
E------2-3--3-3-2222-2------2-3--3-3-2222-2----------|
                                       |this bit X2    |
e-------------------------------------------------------|
B-------------------------------------------------------|
G-2--2-----------------2--2------------9---9---9-7-10-9-|
D-2--2-2-5--5-5-6666-6-2--2-2-5-6666-6-9---9---9-7-10-9-|
A-0--0-2-3--3-3-2222-3-0--0-2-3-2222-3-7---7---7-5--8-7-|
E------2-3--3-3-2222-2------2-3-2222-2------------------|

SOLO
once again, this might not be 100%, feel free to
send any corrections my way.
e--------------------------------------------|
B-/13-13-15-17--------15---------------------|
G-------------12-1212---1414-14--1616161719~-|
D--------------------------------------------| X2
A--------------------------------------------|
E--------------------------------------------|

e-t17p12p8t17p12p8t17p12p8t17p12p8t17p12p8-|
B------------------------------------------|
G------------------------------------------|
D------------------------------------------|
A------------------------------------------|
E------------------------------------------|

e-t15p7p3t15p7p3t15p7p3t15p7p3t15p7p3-|
B-------------------------------------|
G-------------------------------------|
D-------------------------------------|
A-------------------------------------|
E-------------------------------------|

e-t17p8p5t17p8p5t17p8p5t17p8p5t17p8p5-|
B-------------------------------------|
G-------------------------------------|
D-------------------------------------|
A-------------------------------------|
E-------------------------------------|

e-t15p7p3t15p7p3t15p7p3t15p7p3t15p7p3-|
B-------------------------------------|
G-------------------------------------|
D-------------------------------------|
A-------------------------------------|
E-------------------------------------|

e-t17p12p8t17p12p8t17p12p8t17p12p8t17p12p8-|
B------------------------------------------|
G------------------------------------------|
D------------------------------------------|
A------------------------------------------|
E------------------------------------------|

e-t15p7p3t15p7p3t15p7p3t15p7p3t15p7p3-|
B-------------------------------------|
G-------------------------------------|
D-------------------------------------|
A-------------------------------------|
E-------------------------------------|

e-t17p8p5t17p8p5t17p8p5t17p8p5t17p8p5-|
B-------------------------------------|
G-------------------------------------|
D-------------------------------------|
A-------------------------------------|
E-------------------------------------|

e-16171615161716151920191819201918------1720~-|
B-------------------------------------17------|
G-----------------------------------17--------|
D---------------------------------19----------|
A---------------------------------------------|
E---------------------------------------------|
tremolo pick
e-------15-17-----12-17-16--------15-17--19-20-19-11-|
B-10-13--------13-----------10-13--------------------|
G----------------------------------------------------|
D----------------------------------------------------|
A----------------------------------------------------|
E----------------------------------------------------|

e-17p12----------20p1717p12----------20p1717p13-----------|
B------17p13---------------17p13---------------17p13------|
G-----------14h17---------------14h17---------------14h17-|
D---------------------------------------------------------|
A---------------------------------------------------------|
E---------------------------------------------------------|
tremolo pick
e-------15-17-12-13-11-13-7-8-4-5~-|
B-10-13----------------------------|
G----------------------------------|
D----------------------------------|
A----------------------------------|
E----------------------------------|

e-------------------------------------------------15-17~-|
B-------------------13-15-17~------------13-15-17--------|
G-------------12-14-------------12-13-14-----------------|
D-------13-14----------------14--------------------------|
A-12-15--------------------------------------------------|
E--------------------------------------------------------|

e-------------13-15-17-19-19b20r19-17------101310-10-----10------|
B-------15-17-------------------------20b22---------13b15--13b15-|
G-14-17----------------------------------------------------------|
D----------------------------------------------------------------|
A----------------------------------------------------------------|
E----------------------------------------------------------------|
this is probably completely wrong
e---------12----------------121713--------------16--------------17~-|
B-13151617--13------------13------15----------15--15----------15----|
G-------------14--------14----------14------14------14------14------|
D---------------14----14--------------15--15----------15--15--------|
A-----------------1215------------------17--------------17----------|
E-------------------------------------------------------------------|

POST SOLO VERSE
e-----------------|-------------|
B-----------------|-------------|
G-----------------|-------------|
D-2-----2-----2---|-X7-55544444-|
A-2-2-2-2-2-2-2-2-|----55544444-|
E-2-2-2-2-2-2-2-2-|----55544444-|

e-----------------|-------------|
B-----------------|-------------|
G-----------------|-------------| X2
D-2-----2-----2---|-X3-55544444-|
A-2-2-2-2-2-2-2-2-|----55544444-|
E-2-2-2-2-2-2-2-2-|----55544444-|    \
				      X2
e-----------------------------|      /
B-----------------------------|
G-----------------------------|
D------------2-------------2--|
A---3-2--2-3---0--2-3--2-3----|
E-2---------------------------|

SOLO
e----------------------------------------------171512-------------|
B-15b17-15b17r15p12----------------------151617------171512-------|
G--------------------14--12~-------141516------------------161412-|
D------------------12--12---14~1417-------------------------------|
A-----------------------------------------------------------------|
E-----------------------------------------------------------------|

e-171512------181512-------------12-------19-18-------17-15~-|
B-------171512------17151215b17~-------12----------12--------|
G-----------------------------------12----------12-----------|
D------------------------------------------------------------|
A------------------------------------------------------------|
E------------------------------------------------------------|

e--------------------12-------19-18-------17-15-17b1917b19-|
B--------------------------12----------12------------------|
G-14121412----151412----12----------12---------------------|
D---------1412---------------------------------------------|
A----------------------------------------------------------|
E----------------------------------------------------------|

END CHORUS
e----------------------------|
B----------------------------|
G----------------------------|
D-2-----5-4--4-2-------------| X4
A-2-2-2-5-4--4-2-222-222-222-|
E-2-2-2-5-4--4-2-222-222-222-|

e-----------------------------|
B-----------------------------|
G-----------------------------|
D-2-----5-4--4-2--------------| X4
A-2-2-2-5-4--4-2-222222222222-|
E-2-2-2-5-4--4-2-222222222222-|

e-------------------------------------------|
B-------------------------------------------|
G-------------------------------------------|
D-2-----5-4--4-2-------------2-----5-4--4-2-| X2
A-2-2-2-5-4--4-2-222-222-222-2-2-2-5-4--4-2-|
E-2-2-2-5-4--4-2-222-222-222-2-2-2-5-4--4-2-|

so thats it. i'll add the corrections and harmonies at a later date.

RIP jimmy 'the rev' sullivan 09/02/1981 - 28/12/2009
gone but never forgotten
Tap to rate this tab
 
# A B C D E F G H I J K L M N O P Q R S T U V W X Y Z