Guitaretab - guitar tabs
Song name
# A B C D E F G H I J K L M N O P Q R S T U V W X Y Z

Avenged Sevenfold - Danger Line tab

	*IMPORTANT*
I learnt this song by ear so its not going to be 100%

Intro Guitars 1 and 2
e-------------------------------------------------------------------------|
B-------------------------------------------------------------------------|
G-------------------------------------------------------------------------|
D-------------------------------------------------------------------------|
A--0--0-0-0-0--0-0-0-0--0--0-0-0-0-0-0-0-0-0------------------------------|
E--0--0-0-0-0--0-0-0-0--0--0-0-0-0-0-0-0-0-0------------------------------|

Intro Solo Lead Guitar
e--13-13-13-13-12-12-12-12-10-12-13~-13-13-13-13-12-12-12-12-10-12-13-----|
B-------------------------------------------------------------------------|
G-------------------------------------------------------------------------|
D-------------------------------------------------------------------------|
A-------------------------------------------------------------------------|
E-------------------------------------------------------------------------|

e--18-18-18-18-17-17-17-17-15-17-18~-18-18-18-18-15-S21-20--17-18-17~-----|
B-------------------------------------------------------------------------|
G-------------------------------------------------------------------------|
D-------------------------------------------------------------------------|
A-------------------------------------------------------------------------|
E-------------------------------------------------------------------------|

e------------------------------------14-15~----18-17-15-----------14-15~---|
B--S15~----18-17-15----------15---14-------S15---------15-15b~---15--------|
G-------14---------14-13~-13---13-------------------------------15---------|
D--------------------------------------------------------------15----------|
A-------------------------------------------------------------17-----------|
E--------------------------------------------------------------------------|

e17-p13--X4-------22-p17--X4------18-p13---x4------23-p17---X4--------------|I have not
B------15---------------18--------------15---------------18-----------------|figured out
G---------------------------------------------------------------------------|the rest...
D---------------------------------------------------------------------------|
A---------------------------------------------------------------------------|
E---------------------------------------------------------------------------|
Intro Verse Riff
e--------------------------------------------------------------------------|
B--------------------------------------------------------------------------|
G--------------------------------------------------------------------------|
D--------------------------------------------------------------------------|
A--s5-5-3-3----------------------------------------------------------------|
E-----------6-6--5-5-3-5---------------------------------------------------|

Verse Riff
e---------------------------------------------------------------------------|
B---------------------------------------------------------------------------|
G---------------------------------------------------------------------------|
D--0---0-----------------0--0-----------------0---0--------------0---0------|
A--0---0-----------------0--0-----------------0---0--------------0---0------|
E--0---0-0-0-0-0-0-0-0-0-0--0-0-0-0-0-0-0-0-0-0---0-0-0-0-0-0-0--0---0--0-0-|

e--------------------------------------------------------------------------|
B--------------------------------------------------------------------------|
G--------------------------------------------------------------------------|
D--5---5-----------------5--5-----------------5---5--------------5---5-----|
A--5---5-----------------5--5-----------------5---5--------------5---5-----|
E--5---5-5-5-5-5-5-5-5-5-5--5-5-5-5-5-5-5-5-5-5---5--5-5-5-5-5-5-5---5-----|

e---------------------------------------------------------------------------|
B---------------------------------------------------------------------------|
G---------------------------------------------------------------------------|
D---------------------------------------------------------------------------|
A---------------------------------------------------------------------------|
E--0-0-0-0-0-3-0-0-0-0-0-0-0-3-0--0-0-0-0-0-0-0-3-0-0-0-0-0-0-0-0-3-0-0-0-0-|

e---------------------------------------------------------------------------|
B---------------------------------------------------------------------------|
G---------------------------------------------------------------------------|
D---------------------------------------------------------------------------|
A---------------------------------------------------------------------------|
E-5-5-5-5-5-8-5-5-5-5-5-5-5-8-5-5-5-5-5-5-5-5-5-8-5-5-5-5-5-5-5-5-8-5-5-5-5-|

Pre Chorus Solo
e???????????????????????????????????????????????????????????????????????????
B???????????????????????????????????????????????????????????????????????????
G???????????????????????????????????????????????????????????????????????????
D???????????????????????????????????????????????????????????????????????????
A???????????????????????????????????????????????????????????????????????????
E???????????????????????????????????????????????????????????????????????????
[ Tab from: http://www.guitaretab.com/a/avenged-sevenfold/238247.html ]
Chorus Rhythm only soz
e---------------------------------------------------------------------------|
B---------------------------------------------------------------------------|
G---------------------------------------------------------------------------|
D-0-0-0-0-0-0-0-0-0-0-0-0-0-0-0-0-0-5-5-5-5-5-5-5-5-5-5-5-5-5-5-5-5-0-0-0-0-|
A-0-0-0-0-0-0-0-0-0-0-0-0-0-0-0-0-0-5-5-5-5-5-5-5-5-5-5-5-5-5-5-5-5-0-0-0-0-|
E-0-0-0-0-0-0-0-0-0-0-0-0-0-0-0-0-0-5-5-5-5-5-5-5-5-5-5-5-5-5-5-5-5-0-0-0-0-|

Post Chorus Solo
e???????????????????????????????????????????????????????????????????????????
B???????????????????????????????????????????????????????????????????????????
G???????????????????????????????????????????????????????????????????????????
D???????????????????????????????????????????????????????????????????????????
A???????????????????????????????????????????????????????????????????????????
E???????????????????????????????????????????????????????????????????????????

Intro Verse Riff X1
Verse Riff X1
Other Pre Chorus Solo which I dont Know again soz X1
Chorus X1

Bridge Intro
e--------------------------------------------------------------------------|
B--------------------------------------------------------------------------|
G-3---3---3---3---3---3----------------------------------------------------|
D-3---3---3---3---3---3---3---3---3---3---3---3----------------------------|
A-1---1---1---1---1---1---3---3---3---3---3---3----------------------------|
E-------------------------3---3---3---3---3---3----------------------------|

Bridge
e--------------------------------------------------------------------------|
B--------------------------------------------------------------------------|
G-3---3---3---3---3---3----------------------------------------------------|
D-3---3---3---3---3---3----3--3--3--3--3--3---2--2--2--2--2--0--0--0--0--0-|
A-1---1---1---1---1---1----3--3--3--3--3--3---2--2--2--2--2--0--0--0--0--0-|
E--------------------------3--3--3--3--3--3---2--2--2--2--2--0--0--0--0--0-|

e--------------------------------------------------------------------------|
B--------------------------------------------------------------------------|
G-3---3---3---3---3---3----------------------------------------------------|
D-3---3---3---3---3---3----3---3---3---3---3---7--7--7-7---7---7---7-------|
A-1---1---1---1---1---1----3---3---3---3---3---7--7--7-7---7---7---7-------|
E--------------------------3---3---3---3---3---7--7--7-7---7---7---7-------|

e--------------------------------------------------------------------------|
B--------------------------------------------------------------------------|
G-3-----3----3---3-3--3--3-------------------------------------------------|
D-3-----3----3---3-3--3--3--3-----3---3---3---3---2---2---2-0---0---0------|
A-1-11111--111-11111--1111--3-----3---3---3---3---2---2---2-0---0---0------|
E---------------------------3-33333-333-333-333-222-222-222-0-000-000------|

e---------------------------------------------------------------------------|
B---------------------------------------------------------------------------|
G-3----3---3---3--3-----3---------------------------------------------------|
D-3----3---3---3--3-----3--3------3---3---3---3--7---7---7---7---7---7---7--|
A-1-1111-111-111-11---111--3------3---3---3---3--7---7---7---7---7---7---7--|
E----------------------333-333333-333-333-333-77-777-777-777-777-777-777----|

Solo

e-----------------------17b18-17~-15~-15b16-13-15-13-13h15-13h15-13~-------|
B--s15-s17-s18-15-13-15----------------------------------------------------|
G--------------------------------------------------------------------------|
D--------------------------------------------------------------------------|
A--------------------------------------------------------------------------|
E--------------------------------------------------------------------------|

e-----17-18--s18-17------17~-17-17-18-17-15-18-----------------------------|
B-s18------15------13-s18--------------------------------------------------|
G--------------------------------------------------------------------------|
D--------------------------------------------------------------------------|
A--------------------------------------------------------------------------|
E--------------------------------------------------------------------------|

e-----13-15-13-12h13p12--10-12-13-----15-17-18-17-15~----------------------|
B-s15----------------------------15-13-------------------------------------|
G--------------------------------------------------------------------------|
D--------------------------------------------------------------------------|
A--------------------------------------------------------------------------|
E--------------------------------------------------------------------------|

e-15-17-18-18-20-18-17~---------------18-17-15-13-------17-15-13-s17~-------|
B------------------------s18-15--15-17-------------13-15--------------------|
G---------------------------------------------------------------------------|
D---------------------------------------------------------------------------|
A---------------------------------------------------------------------------|
E---------------------------------------------------------------------------|

e-15-15-17-17-18-20b21-17-18-19-20-21b22~----------------------------------|
B--------------------------------------------------------------------------|
G--------------------------------------------------------------------------|
D--------------------------------------------------------------------------|
A--------------------------------------------------------------------------|
E--------------------------------------------------------------------------|


There you go and for the solos that i didnt get to find out i wuld just improvise like a 
harmonic or sweep picking but thats me =p
Related for Danger Line tab
Danger Line chords by Avenged Sevenfold