Song name
# A B C D E F G H I J K L M N O P Q R S T U V W X Y Z

Avenged Sevenfold - God Hates Us tab

Drop D. Solo :


E|--10h---13h---10h---16h--16h/--|--10h-13h---10h---16h--16h/--|
B|--13h---16h---13h---19h--19h/--|--13h-16h---13h---19h--19h/--|
G|-------------------------------|-----------------------------|  x2
D|-------------------------------|-----------------------------|
A|-------------------------------|-----------------------------|
D|-------------------------------|-----------------------------|

E|-----------13/--------------|--13/------16/-----13/----|
B|--15/---------15-----15/----|-----15-------18------15--|
G|-----13-----------------13--|--------------------------|
D|----------------------------|--------------------------|
A|----------------------------|--------------------------|
D|----------------------------|--------------------------|

E|-13-----------16-13-------13--------|-16-13-------16-13-------13-------|
B|----15-12/----------15/------15-12/-|-------15/---------15-12----15-12-|
G|------------------------------------|----------------------------------|
D|------------------------------------|----------------------------------|
A|------------------------------------|----------------------------------|
D|------------------------------------|----------------------------------|

E|---------------|
B|---------------|
G|-13-/7h~~~7*~~~|
D|---------------|
A|---------------|
D|---------------|

E|---------------------------------------------------|
B|--------------------------------------14h-~~~/9*~~-|
G|-----------12-13-15-13-12----12-13-15--------------|
D|--12-14-15----------------15-----------------------|
A|---------------------------------------------------|
D|---------------------------------------------------|

E|--16-13-16-13-------13-10-13-10-------16-13-19-13-------13-10-16-10------|
B|--------------15-15-------------12-12-------------15-15-------------12-12|
G|-------------------------------------------------------------------------|
D|-------------------------------------------------------------------------|
A|-------------------------------------------------------------------------|
D|-------------------------------------------------------------------------|

E|-19-16-19-16-------16-13-16-13-------------|
B|-------------18-18-------------15-15/12~~~-|
G|-------------------------------------------|
D|-------------------------------------------|
A|-------------------------------------------|
D|-------------------------------------------|

E|-------------------------------------------------------------------------|
B|--------------------------------------------------18-18-18-18-15-15-15-15|
G|--------------------------14-14-14-14-13-13-13-13------------------------|
D|--12-12-12-12-15-15-15-15------------------------------------------------|
A|-------------------------------------------------------------------------|
D|-------------------------------------------------------------------------|

E|--------------------------------------------------------------15-17-18-20--|
B|-18-18-18-18-18-18-18-18-18-18-18-18--------------14-15-17-18--------------|
G|--------------------------------------13-14-15-17--------------------------|
D|---------------------------------------------------------------------------|
A|---------------------------------------------------------------------------|
D|---------------------------------------------------------------------------|

E|-21h-~~~~~~~~~~--|
B|-----------------|
G|-----------------|
D|-----------------|
A|-----------------|
D|-----------------|
Tap to rate this tab
 
# A B C D E F G H I J K L M N O P Q R S T U V W X Y Z