Song name
# A B C D E F G H I J K L M N O P Q R S T U V W X Y Z

Avenged Sevenfold - Danger Line tab

-------------------------------------------------------------------------------
			     Danger Line (solo) - Avenged Sevenfold
-------------------------------------------------------------------------------
Tabbed by: fantafantastico (Joshua Smyth)
Email: joshesmyth@hotmail.com

Tuning: Drop D

h - hammer on 
p - pull off 
b - bend string up
r - release bend
/ - slide up
\ - slide down
v - vibrato

GUITAR 1
e|-----------------------------13-17b18r17~~-15~----15b17r15p13----13h15---|
B|-13b15----15b17r15b18r-15-13----------------------------------15---------|
G|-------------------------------------------------------------------------|
D|-------------------------------------------------------------------------|
A|-------------------------------------------------------------------------|
D|-------------------------------------------------------------------------|

GUITAR 2 (HARMONY)
e|-------------------------------------------------------------------------|
B|-------------------------------------------------------------------------|
G|-------------------------------------------------------------------------|
D|-------------------------------------------------------------------------|
A|-------------------------------------------------------------------------|
D|-------------------------------------------------------------------------|

GUITAR 1
e|-13h15-13~------13-17-18~-------/18-17~------/13-/17~-17h18p17p16h17~----|
B|---------------------------15~\---------13~\-----------------------------|
G|-------------------------------------------------------------------------|
D|-------------------------------------------------------------------------|
A|-------------------------------------------------------------------------|
D|-------------------------------------------------------------------------|

GUITAR 2 (HARMONY)
e|-------------------------------------------------------------------------|
B|-------------------------------------------------------------------------|
G|-------------------------------------------------------------------------|
D|-------------------------------------------------------------------------|
A|-------------------------------------------------------------------------|
D|-------------------------------------------------------------------------|

GUITAR 1
e|---------------------------------------------13-17b18r17~~-15---15-17-18-|
B|-17-18b20r18-17h18p17\15~-15b17r15b18r-15-13-----------------------------|
G|-------------------------------------------------------------------------|
D|-------------------------------------------------------------------------|
A|-------------------------------------------------------------------------|
D|-------------------------------------------------------------------------|

GUITAR 2 (HARMONY)
e|-------------------------------------------------------------------------|
B|-------------------------------------------------------------------------|
G|-------------------------------------------------------------------------|
D|-------------------------------------------------------------------------|
A|-------------------------------------------------------------------------|
D|-------------------------------------------------------------------------|

GUITAR 1
e|-18-18b20-17b18r17~~--------------13-18-17-15-13~-----13-17-15-13-15/17~-|
B|---------------------15b17r15~-15------------------13--------------------|
G|-------------------------------------------------------------------------|
D|-------------------------------------------------------------------------|
A|-------------------------------------------------------------------------|
D|-------------------------------------------------------------------------|

GUITAR 2 (HARMONY)
e|-------------------------------------------------------------------------|
B|-------------------------------------20-18-17------------18-17-----------|
G|----------------------------------19------------------17-------19-18~~---|
D|---------------------------20~-20-------------19~--19--------------------|
A|-------------------------------------------------------------------------|
D|-------------------------------------------------------------------------|

GUITAR 1
e|-17-18-19-19b21~~-------17-18-20-20b22~~~--------------------------------|
B|---------------------17--------------------------------------------------|
G|-------------------------------------------------------------------------|
D|-------------------------------------------------------------------------|
A|-------------------------------------------------------------------------|
D|-------------------------------------------------------------------------|

GUITAR 2 (HARMONY)
e|-------------------------------------------------------------------------|
B|-------17-20b22~~--------------------------------------------------------|
G|-18-19------------------18-19-21-21b22~~~--------------------------------|
D|---------------------19--------------------------------------------------|
A|-------------------------------------------------------------------------|
D|-------------------------------------------------------------------------|

Hope this helps some people, spent about 4 hours trying to work this out,
whilst under the influence of a lot of cheap energy drink :)
Any comments, helpful or otherwise are appreciated.



Tap to rate this tab
 
# A B C D E F G H I J K L M N O P Q R S T U V W X Y Z