Avenged Sevenfold - Save Me tab

----------------------------------------------------------------------------
	             Avenged Sevenfold - Save Me
----------------------------------------------------------------------------
Tabbed by: Nick (downfromthesky)
Email: Zekai_a7x@hotmail.com

Tuning: Drop D

INTRO

gtr 1
e|--------5-6-5-6p5p4-5-----5-6-5-6p5-3-------------------------------------|
B|------6-----------------5-------------8-10-8-6-5---5-7-8------------------|
G|-7-/7-----------------6--------------------------7-------7----------------|
D|--------------------------------------------------------------------------|
A|--------------------------------------------------------------------------|
D|--------------------------------------------------------------------------|

gtr 2
e|--------------------------------------------------------------------------|
B|--------------------------------------5-7-5-3-2---3-2-5-------------------|
G|------------------------------------------------4-------4-----------------|
D|--------------------------------------------------------------------------|
A|--------------------------------------------------------------------------|
D|--------------------------------------------------------------------------|

gtr 1
e|-/14-14-14-12-15-14-/13-13-13-12-15-13-9-10-12----------------------------|
B|--------------------------------------------------------------------------|
G|--------------------------------------------------------------------------|
D|--------------------------------------------------------------------------|
A|--------------------------------------------------------------------------|
D|--------------------------------------------------------------------------|

gtr 2
e|-/10-10-10--9-12-10-/10-10-10--9-12-10------------------------------------|
B|---------------------------------------10-12-14---------------------------|
G|--------------------------------------------------------------------------|
D|--------------------------------------------------------------------------|
A|--------------------------------------------------------------------------|
D|--------------------------------------------------------------------------|

gtr 1
e|-/17-17-16-16-------------------------17-19-17----------------------------|
B|--------------14h17p14----------13-17-------------------------------------|
G|--------------------------------------------------------------------------|
D|--------------------------------------------------------------------------|
A|--------------------------------------------------------------------------|
D|--------------------------------------------------------------------------|

gtr 2
e|---------/17-17-16-16-----------------------17----------------------------|
B|-----------------------14h17p14-------17-20-------------------------------|
G|--------------------------------14-17-------------------------------------|
D|--------------------------------------------------------------------------|
A|--------------------------------------------------------------------------|
D|--------------------------------------------------------------------------|

gtr 1 & 2
guitar 2 keeps repeats 3 times
e|--------------------------------------------------------------------------|
B|--------------------------------------------------------------------------|
G|--------------------------------------------------------------------------|
D|-0-00000-00000-000000000000-0-00000-00000-000000000000--------------------|
A|-0-00000-00000-000000000000-0-00000-00000-000000000000--------------------|
D|-0-00000-00000-000000000000-0-00000-00000-000000000000--------------------|
pm * ***** ***** ************ * ***** ***** ************

gtr 1 do this twice
e|--------------------------------------------------------------------------|
B|--------------------------------------------------------------------------|
G|-------------------------------3------------------------------------------|
D|-7p0-7h8-----5p0-5h7-3p0---2-5--------------------------------------------|
A|-------------------------4------------------------------------------------|
D|--------------------------------------------------------------------------|

gtr 1 then this twice, notes in brackets only on the 2nd time
e|--------------------------------------------------------------------------|
B|--------------------------------------------------------------------------|
G|-------------------------------3--(6-7-9)---------------------------------|
D|--7p0-7h8~--5p0-5h7~-3p0---2-5--------------------------------------------|
A|-------------------------4------------------------------------------------|
D|--------------------------------------------------------------------------|

havent figured out from 1:08 to 1:53 sorry guys

gtr 1 & 2
e|--------------------------------------------------------------------------|
B|--------------------------------------------------------------------------|
G|--------------------------------------------------------------------------|
D|--------------------------------------------------------------------------|
A|-0-0000-0000-000000000-0-0000-0000-000000000------------------------------|
D|-0-0000-0000-000000000-0-0000-0000-000000000------------------------------|
pm * **** **** ********* * **** **** *********

VERSE

gtr 1 & 2 let these chords ring
e|--------------------------------------------------------------------------|
B|--------------------------------------------------------------------------|
G|-7-----7----7------2----3----2-------------------4---4--------------------|
D|-7-----8----7------2----2----2----2----2---------4---4--------------------|
A|-5-----5----5------0----0----0----2----2---------2---2--------------------|
D|----------------------------------2----2----------------------------------|

gtr 1 & 2 let these ring too
e|--------------------------------------------------------------------------|
B|-7--------6--------2-------1----------------------------------------------|
G|-7--------7--------2-------2----------------------------------------------|
D|-7--------7--------2-------2----------------------------------------------|
A|-5--------5--------0-------0----------------------------------------------|
D|--------------------------------------------------------------------------|
   D       Dm        A       Am

gtr 1 & 2 repeat once
e|--------------------------------------------------------------------------|
B|--------------------------------------------------------------------------|
G|--------------------------------------------------------------------------|
D|-0---------0---------6---------7------------------------------------------|
A|-0-0-0-0-0-0-0-0-0-0-7-7-7-7-7-7-7-7-7-7----------------------------------|
D|-0-0-0-0-0-0-0-0-0-0-6-6-6-6-6-7-7-7-7-7----------------------------------|
pm   * * * *   * * * *   * * * *   * * * *

gtr 1 & 2
e|---------------------------------------------------------------------------|
B|---------------------------------------------------------------------------|
G|---------------------------------------------------------------------------|
D|---------------------------------------------------------------------------|
A|---------------------------------------------------------------------------|
D|-0-0-12-0-11-0-8-0-11-0-8~---0-0-8-0-7-0-5-0-7~--0-0-12-0-11-0-8-0-11-0-8~-|
pm * *    *    *   *    *      * *   *   *   *     * *    *    *   *    *

gtr 1 & 2
e|--------------------------------------------------------------------------|
B|--------------------------------------------------------------------------|
G|--------------------------------------------------------------------------|
D|-8-8-8-8--7-7-7-7---------------------------------------------------------|
A|-8-8-8-8--7-7-7-7---------------------------------------------------------|
D|-8-8-8-8--7-7-7-7---------------------------------------------------------|

CHORUS
e|----15----15-17----------18-17-15-17------1715171517--1715171517--17151715-|
B|-18----18-------13-14-17-------------15-15----------18----------15---------|
G|---------------------------------------------------------------------------|
D|---------------------------------------------------------------------------|
A|---------------------------------------------------------------------------|
D|---------------------------------------------------------------------------|

e|17--1715171517-------------------------13-15-15-17-18---------------------|
B|--18---------------------13-15-13-15-17-----------------------------------|
G|----------------first-----------------------------------------------------|
D|----------------ending----------------------------------------------------|
A|--------------------------------------------------------------------------|
D|--------------------------------------------------------------------------|

e|--------------------------1513151315----1513151315------------------------|
B|-----------------------13------------17-------------do that twice---------|
G|----------------second----------------------------------------------------|
D|----------------ending----------------------------------------------------|
A|--------------------------------------------------------------------------|
D|--------------------------------------------------------------------------|

interlude thing
e|--------------------------------------------------------------------------|
B|--------------------------------------------------------------------------|
G|--------------------------------------------------------------------------|
D|--------------------------------------------------------------------------|
A|-0-0--0-0--0-0-000000000000-0-0--0-0--0-0---------------------------------|
D|-0-0--0-0--0-0-000000000000-0-0--0-0--0-0---------------------------------|
pm * *  * *  * * ************ * *  * *  * *

now back to the verse
then the chorus
then this
e|------------------------15------------------------------------------------|
B|--11-13-11-13-15~-17-18---------------------------------------------------|
G|--------------------------------------------------------------------------|
D|----------------------------0 let ringggggg-------------------------------|
A|----------------------------0---------------------------------------------|
D|----------------------------0-----------------------pickslide////---------|

gtr 2
e|--------------------------------------------------------------------------|
B|--------------------------------------------------------------------------|
G|--------------------------------------------------------------------------|
D|-----7-----5-----8-----7-----5h7------------------------------------------|
A|-----------------------------------repeat---------------------------------|
D|-0-0---0-0---0-0---0-0---0-0----------------------------------------------|
pm * *   * *   * *   * *   * *

e|--------------------------------------------------------------------------|
B|--------------------------------------------------------------------------|
G|-----2-----0-----3-----2-----2h3------------------------------------------|
D|--------------------------------------------------------------------------|
A|-1-1---1-1---1-1---1-1---1-1------repeat----------------------------------|
D|--------------------------------------------------------------------------|
pm * *   * *   * *   * *   * *

gtr 2 keeps playing that^
gtr 1 plays
e|--------------------------------------------------------------------------|
B|--------------------------------------------------------------------------|
G|-7-9-10-7-9-10-7-9-10-15-14-12h14-10-12-14-10-12-14-10-12-14--17~~~~------|
D|--------------------------------------------------------------------------|
A|--------------------------------------------------------------------------|
D|--------------------------------------------------------------------------|

this next part uses extremely fast tremelo picking for both guitars

gtr 1
e|-13-15-17-13-15-17-13-15-17-18-17-15h17-----------------------------------|
B|--------------------------------------------------------------------------|
G|--------------------------------------------------------------------------|
D|--------------------------------------------------------------------------|
A|--------------------------------------------------------------------------|
D|--------------------------------------------------------------------------|

gtr 2
e|--------------------------------------------------------------------------|
B|-15-17-18-15-17-18-15-17-18-20-18-17h18-----------------------------------|
G|--------------------------------------------------------------------------|
D|--------------------------------------------------------------------------|
A|--------------------------------------------------------------------------|
D|--------------------------------------------------------------------------|

gtr 1
e|-13-15-17-13-15-17-13-15-17-20~~~~~---------------------------------------|
B|--------------------------------------------------------------------------|
G|--------------------------------------------------------------------------|
D|--------------------------------------------------------------------------|
A|--------------------------------------------------------------------------|
D|--------------------------------------------------------------------------|

gtr 2
e|--------------------------------------------------------------------------|
B|-15-17-18-15-17-18-15-17-18-22~~~~~---------------------------------------|
G|--------------------------------------------------------------------------|
D|--------------------------------------------------------------------------|
A|--------------------------------------------------------------------------|
D|--------------------------------------------------------------------------|

you guessed it, no solo yet :(
i have some of the rhythm for it though

gtr 2 (5:37)
e|--------------------------------------------------------------------------|
B|----------------6p5---6p5--------------------6p5---6p5--------do this-----|
G|--------------------------------------------------------------four times--|
D|-0-0--0-0--0-0------7-----6~--0-0--0-0--0-0------7-----6~-----------------|
A|-0-0--0-0--0-0----------------0-0--0-0--0-0-------------------------------|
D|-0-0--0-0--0-0----------------0-0--0-0--0-0-------------------------------|
pm * *  * *  * *                * *  * *  * *

e|--------------------------------------------------------------------------|
B|--------------------------------------------------------------------------|
G|--------------------------------------------------------------------------|
D|-00-00-00-00-00-0-55-55-55-55-55-5-33-33-3-22-22-2-00-00-0----------------|
A|-00-00-00-00-00-0-55-55-55-55-55-5-55-55-5-44-44-4-00-00-0----------------|
D|-00-00-00-00-00-0-55-55-55-55-55-5-33-33-3-22-22-2-00-00-0-7-5-3-5-3-0-3~-|
pm ** ** ** ** ** * ** ** ** ** ** * ** ** * ** ** * ** ** *

do that twice

gtr 1 & 2 clean (let all bass notes ring)
e|--------------------------------------------------------------------------|
B|--------------------------------------------------------------------------|
G|-------------------------------------0h2----------------------------------|
D|---2-3-2-0---2-3-2-0---2-3-2-0---0----------------------------------------|
A|--------------------------------------------------------------------------|
D|-0---------2---------3---------5---5--------------------------------------|

e|--------------------------------------------------------------------------|
B|--------------------------------------------------------------------------|
G|-------------------------------------5\2----------------------------------|
D|---2-3-2-0---2-3-2-0---2-3-2-0---0----------------------------------------|
A|--------------------------------------------------------------------------|
D|-0---------2---------3---------5---5--------------------------------------|

do that twice

e|--------------------------------------------------------------------------|
B|--------------------------------------------------------------------------|
G|--------------------------------------------------------------------------|
D|---9-9---9-9---10-10---10-10---9-9---9-9---10-10---10-10------------------|
A|--7-7-7-7-7-7-7--7--7-7--7--7-7-7-7-7-7-7-7--7--7-7--7--7-----------------|
D|-7-----7-----7-------7-------7-----7-----7-------7------------------------|

(6:57)
e|--------------------------------------------------------------------------|
B|--------------------------------------------------------------------------|
G|--------------------------------------------------------------------------|
D|-----15--15------15--15------12--12------12--12------12--12------12--12---|
A|---12--12--12--12--12--12--12--12--12--12--12--12--12--12--12--12--12--12-|
D|-12----------12----------12----------12----------12----------12-----------|

e|--------------------------------------------------------------------------|
B|--------------------------------------------------------------------------|
G|--------------------------------------------------------------------------|
D|-----14--14------14--14---------------------------------------------------|
A|---12--12--12--12--12--12-------------------------------------------------|
D|-12----------12------------do this four times-----------------------------|

(7:27)
gtr 1
e|--------------------------------------------------------------------------|
B|--------------------------------------------------------------------------|
G|-------------------------------3------------------------------------------|
D|-7p0-7h8---5p0-5h7---3p0---2-5--------------------------------------------|
A|-------------------------4------------------------------------------------|
D|--------------------------------------------------------------------------|

gtr 2
e|--------------------------------------------------------------------------|
B|--------------------------------------------------------------------------|
G|--------------------------------------------------------------------------|
D|--------------------------------------------------------------------------|
A|-0-----00000-----00000--000000000000--------------------------------------|
D|-0-----00000-----00000--000000000000--------------------------------------|
pm *     *****     *****  ************

gtr 1
e|---------------------------------------------------------------------------|
B|---------------------------------------------------------------------------|
G|---------------------------------------------------------------------------|
D|-7p0-7h8---5p0-5h7---------------------------------------------------------|
A|---------------------------------------------------------------------------|
D|------------------------0 dive bomb----------------------------------------|

gtr 2
e|--------------------------------------------------------------------------|
B|--------------------------------------------------------------------------|
G|--------------------------------------------------------------------------|
D|--------------------------------------------------------------------------|
A|-0-----00000-----00000----------------------------------------------------|
D|-0-----00000-----00000----------------------------------------------------|
pm *     *****     *****


gtr 1
e|--------------------------------------------------------------------------|
B|--------------------------------------------------------------------------|
G|----------------3--------------4--------------5------6--------------------|
D|-0--------------3--------------5--------------5------7--------------------|
A|-0--------------1--------------2--------------3------4--------------------|
D|-0------------------------------------------------------------------------|

gtr 2
e|--------------------------------------------------------------------------|
B|--------------------------------------------------------------------------|
G|----14-12-14-12----14-12-14-12----14-12-14-12----14-12-14-12--------------|
D|-12-----------------------------------------------------------------------|
A|----------------13-------------14-------------15--------------------------|
D|--------------------------------------------------------------------------|

do this four times
then back to the chorus

(8:39)
gtr 1
e|--------5-6-5-6p5p4-5-----5-6-5-6p5-3-------------------------------------|
B|------6-----------------5-------------8-10-8-6-5---5-7-8------------------|
G|-7-/7-----------------6--------------------------7-------7----------------|
D|--------------------------------------------------------------------------|
A|--------------------------------------------------------------------------|
D|--------------------------------------------------------------------------|

gtr 2
e|--------------------------------------------------------------------------|
B|--------------------------------------5-7-5-3-2---3-2-5-------------------|
G|------------------------------------------------4-------4-----------------|
D|--------------------------------------------------------------------------|
A|--------------------------------------------------------------------------|
D|--------------------------------------------------------------------------|

gtr 1
e|-/14-14-14-12-15-14-/13-13-13-12-15-13-9-10-12----------------------------|
B|--------------------------------------------------------------------------|
G|--------------------------------------------------------------------------|
D|--------------------------------------------------------------------------|
A|--------------------------------------------------------------------------|
D|--------------------------------------------------------------------------|

gtr 2
e|-/10-10-10--9-12-10-/10-10-10--9-12-10------------------------------------|
B|---------------------------------------10-12-14---------------------------|
G|--------------------------------------------------------------------------|
D|--------------------------------------------------------------------------|
A|--------------------------------------------------------------------------|
D|--------------------------------------------------------------------------|

gtr 1
e|-/17-17-16-16-------------------------17-19-17~~~~------------------------|
B|--------------14h17p14----------13-17-------------------------------------|
G|--------------------------------------------------------------------------|
D|--------------------------------------------------------------------------|
A|--------------------------------------------------------------------------|
D|--------------------------------------------------------------------------|

gtr 2
e|---------/17-17-16-16-----------------------------------------------------|
B|-----------------------14h17p14-------17-20-17~~~~------------------------|
G|--------------------------------14-17-------------------------------------|
D|--------------------------------------------------------------------------|
A|--------------------------------------------------------------------------|
D|--------------------------------------------------------------------------|

fake ending number one (9:09)

gtr 1 & 2
e|--------------------------------------------------------------------------|
B|--------------------------------------------------------------------------|
G|-------------------------------------2 let ringgggggg---------------------|
D|-3-3-3-3--3-3-3-3--0-0-0-0--0-0-0-0--2------------------------------------|
A|-3-3-3-3--3-3-3-3--0-0-0-0--0-0-0-0--0------------------------------------|
D|-3-3-3-3--3-3-3-3--0-0-0-0--0-0-0-0---------------------------------------|

then there's some piano
(tonight, we all die young)

(9:43)
e|---------------------------------------------------------------------------|
B|---------------------------------------------------------------------------|
G|-3-3-3--5-5-5----------------3-3-3--5-5-5----------------------------------|
D|-3-3-3--5-5-5--0-0-0--0-0-0--3-3-3--5-5-5--0-0-0--0-0-0--------------------|
A|-1-1-1--3-3-3--0-0-0--0-0-0--1-1-1--3-3-3--0-0-0--0-0-0--------------------|
D|---------------0-0-0--0-0-0----------------0-0-0--0-0-0--------------------|

you do that a bunch of times then somewhere (about 10:04)
in this huge outro just strum the chords not in groups of three.
if you know what i mean.

now for the very last outro
(10:44)

gtr 1
e|--------------------------------------------------------------------------|
B|-4-4--4-4-4-4--4-4-4-4--4-4-4-4-4-4-4-------------------------------------|
G|-7-7--7-7-7-7--7-7-7-7--7-7-7-7-7-7-7-------------------------------------|
D|--------------------------------------------------------------------------|
A|--------------------------------------------------------------------------|
D|--------------------------------------------------------------------------|

gtr 2
e|--------------------------------------------------------------------------|
B|--------------------------------------------------------------------------|
G|--------------------------------------------------------------------------|
D|--------------------------------------------------------------------------|
A|-0-00000-00000-000000000000-0-00000-00000-000000000000--------------------|
D|-0-00000-00000-000000000000-0-00000-00000-000000000000--------------------|

finally its done! sorry i dont have the solo or some other parts.
but at least i got some of it right? :)

comment/rate please

and if you need anything else email me at zekai_a7x@hotmail.com
Tap to rate this tab
 
# A B C D E F G H I J K L M N O P Q R S T U V W X Y Z