Avenged Sevenfold - Danger Line tab

e---------------------------17b--15--/17\15\13---------------|
b--15b---15--13--/18-----------------------------------------|
g------------------------------------------------------------|
d------------------------------------------------------------|
a------------------------------------------------------------|
D------------------------------------------------------------|

e--13h15--13h15--13--/17--18---------/18--17-----------------|
b----------------------------------------/15-----------------|
g------------------------------------------------------------|
d------------------------------------------------------------|
a------------------------------------------------------------|
D------------------------------------------------------------|

e-----------------17~~---18-17-16-17----------------------------|
b----------/18--------------------------------17-18-20-18-------|
g---/17---------------------------------------------------------|
d---------------------------------------------------------------|
a---------------------------------------------------------------|
D---------------------------------------------------------------|

e-----------------------------------17b--15---17--18-18-----------|
b-17h18h17--------------18----------------------------------------|
g----------------19b--17------------------------------------------|
d-----------------------------------------------------------------|
a-----------------------------------------------------------------|
D-----------------------------------------------------------------|

e--18/20-17b 17----------------15--17--18-17--------------------------|
b-------------------------17--15-----------------------/20\18---------|
g---------------------------------------------------------------------|
d---------------------------------------------------------------------|
a---------------------------------------------------------------------|
D---------------------------------------------------------------------|

e---13--15--17-15---------17~~-----17-18-20-20b-----------------------|
b-------------------------/18-----------------------------------------|
g---------------------------------------------------------------------|
d---------------------------------------------------------------------|
a---------------------------------------------------------------------|
D---------------------------------------------------------------------|

e--17-18--21-21b---------------------------------------------|
b------------------------------------------------------------|
g------------------------------------------------------------|
d------------------------------------------------------------|
a------------------------------------------------------------|
D------------------------------------------------------------|
Tap to rate this tab
 
# A B C D E F G H I J K L M N O P Q R S T U V W X Y Z