Song name
# A B C D E F G H I J K L M N O P Q R S T U V W X Y Z

Avenged Sevenfold - God Hates Us tab

Song: God Hates Us
By: Avenged Sevenfold
Tabbed By: vengefulguitar
Tuning: Drop D

Aug 3, 2010: Hey guys heres God Hates Us. All by ear not copied or anything
Ill figure out intro soon and maybe the solo. Sorry About some weird parts in the tab. I
to use extra smaller tabs cause i ran out of space. Leave comments if ur confused

Heavy Part
e|-----------------|
B|-----------------|
G|-----------------|
D|7\---------------|
A|5\---------------|
E|-----------------|

e|-----------------|
B|-----------------|
G|-----------------|
D|------7--5--8-7--|
A|------5--3--6-5--|
E|000000--0--0-----|
  ......  .  .
x7 (second tab)

e|------------------------------------------------------------|
B|------------------------------------------------------------|
G|------8-8-8-------------------------------------------------|
D|1-1-1-8-8-8-------------------------------------------------|
A|1-1-1-6-6-6-------------------------------------------------|
E|1-1-1-------------------------------------------------------|
Use this instead of 5-7 on the seventh time you play the riff
-----------------------------------------------------------------------------

e|------------------------------------|----------------------------|
B|------------------------------------|----------------------------|
G|------------------------------------|----------------------8-8-8-|
D|7\------7---5--8-7--------7--5--8-7-|-------7--5--8--1-1-1-8-8-8-|
A|5\------5---3--6-5--------5--3--6-5-|-------5--3--6--1-1-1-6-6-6-|
E|--000000---0--0-----000000--0--0----|-000000--0--0---1-1-1-------|
    ......   .  .     ......  .  .      ......  .  .
x2
-----------------------------------------------------------------------------
Screaming Riff
e|-------------------------|------------------------|
B|-------------------------|------------------------|
G|---7-7\5/8-----9-9\8-8\7-|----7-7\5/8-------------|
D|0--X-X\X/X--0--X-X\X-X\X-|-0--X-X\X/X--1--1--1--1-|
A|0--5-5\3/6--0--7-7\6-6\5-|-0--5-5\3/6--1--1--1--1-|
E|0-----------0------------|-0-----------1--1--1--1-|
x2
-----------------------------------------------------------------------------
Verse 1
e|------------------------------------------|--------------------------------|
B|------------------------------------------|--------------------------------|
G|------------------------------------------|--------------------------------|
D|------------------------------------------|--------------------------------|
A|------------------------------------------|--------------------------------|
E|0000-13-000-12-000-10-00-10-000-12-000-13-|0000-13-000-12-000-10-00-10-000-|

e|----------|
B|----------|
G|----------|
D|----------|
A|----------|
E|15-000-13-|
x3 (both tabs)


e|------------------------------------------|--------------------------------|
B|------------------------------------------|--------------------------------|
G|------------------------------------------|--------------------------------|
D|------------------------------------------|--------------------------------|
A|------------------------------------------|--------------------------------|
E|0000-13-000-12-000-10-00-10-000-12-000-13-|0000-13-000-12-000-10-00-10-000-|

e|---------|
B|---------|
G|---------|
D|3--6--9--|
A|3--6--9--|
E|3--6--9--|
The verse is tricky and Im not sure if I have it down. Listen to the song before playing
-----------------------------------------------------------------------------
Chorus

e|--------------|--------------|
B|--------------|--------------|
G|--------------|--------------|
D|0--0-6-3-9--6-|--0--6-3-9--6-|
A|0--0-6-3-9--6-|--0--6-3-9--6-|
E|0--0-6-3-9--6-|--0--6-3-9--6-|
x4
-----------------------------------------------------------------------------
Repeat Screaming Riff
-----------------------------------------------------------------------------
Verse 2

e|---------------------------------|----------------------------|
B|---------------------------------|----------------------------|
G|---------------------------------|----------------------8-8-8-|
D|7\------7--5--8-7------7--5--8-7-|-------7--5--8--1-1-1-8-8-8-|
A|5\------5--3--6-5------5--3--6-5-|-------5--3--6--1-1-1-6-6-6-|
E|--000000--0--0---000000--0--0----|-000000--0--0---1-1-1-------|
    ......  . .    ......  .  .      ......  .  .

e|---------------------------------|--------------------------------|
B|---------------------------------|--------------------------------|
G|---------------------------------|--------------------------------|
D|7\------7--5--8-7------7--5--8-7-|-------7--5--8-7------7--5--8-7-|
A|5\------5--3--6-5------5--3--6-5-|-------5--3--6-5------5--3--6-5-|
E|--000000--0--0---000000--0--0----|-000000--0--0---000000--0--0----|
    ......  .  .   ......  .  .      ......  .  .   ......  .  .

e|-------------------------------|------------------------------|
B|-------------------------------|------------------------------|
G|-------------------------------|------------------------------|
D|------7--5--8-7------7--5--8-7-|-------7--5--8-7------7--5--8-|
A|------5--3--6-5------5--3--6-5-|-------5--3--6-5------5--3--6-|
E|000000--0--0---000000--0--0----|-000000--0--0---000000--0--0--|
  ......  .  .   ......  .  .      ......  .  .   ......  .  .

e|-------------------------------|
B|-------------------------------|
G|-------------------------------|
D|0------------------------------|
A|0------------------------------|
E|0------------------------------|

Repeat Verse 1
-----------------------------------------------------------------------------
Repeat Chorus

Repeat Screaming Riff
-----------------------------------------------------------------------------
Bridge

Gtr 1
e|---------------|----------------|------------------|-----------------|
B|---------------|----------------|---------15~------|-----------------|
G|---------------|----------------|------------------|-----------------|
D|---------------|----------------|------------------|-----------------|
A|0-0-0-0--0-0-0-|-0-0-0-0--0-0-0-|-0--0--0----0-0-0-|-0-0-0-0---0-0-0-|
E|0-0-0-0--0-0-0-|-0-0-0-0--0-0-0-|-0--0--0----0-0-0-|-0-0-0-0---0-0-0-|
  . . . .  . . .   . . . .  . . .   .  .  .    . . .   . . . .   . . .
x2
-----------------------------------------------------------------------------
Gtr 2
e|------------------------------------------|------------------------------|
B|------------------------------------------|------------------------------|
G|------------------------------------------|------------------------------|
D|------------------------------------------|------------------------------|
A|------------------------------------------|------------------------------|
E|0000-13-000-12-000-10-00-10-000-12-000-13-|0000-13-000-12-000-10-00-10---|

e|-------------|
B|-------15~~~-|
G|-------------|
D|-------------|
A|-------------|
E|000-15-------|

e|-----------------------------------------|--------------------------------|
B|-----------------------------------------|--------------------------------|
G|-----------------------------------------|--------------------------------|
D|-----------------------------------------|--------------------------------|
A|-----------------------------------------|--------------------------------|
E|000-13-000-12-000-10-00-10-000-12-000-13-|0000-13-000-12-000-10-00-10-000-|


e|--------|
B|--------|
G|--------|
D|3--6--9-|
A|3--6--9-|
E|3--6--9-|

Entire Section x2

Begin after Gtr 1 plays its part once
This is similar to the verse.
-----------------------------------------------------------------------------
Solo
Havn't figured out lead yet.

Rhythm: Chorus x8
-----------------------------------------------------------------------------
Repeat Screaming Riff x4

outro: once i figure out the intro ill have this figured out
Tap to rate this tab
 
# A B C D E F G H I J K L M N O P Q R S T U V W X Y Z