Avenged Sevenfold - Victim tab

-----------------------------------------------------------------------------
     Victim solo 2- Avenged Sevenfold
2010 album : Nightmare
-----------------------------------------------------------------------------
Victim solo 2 Tabbed by: Corne; - cornela1
Email:corne_smallville@hotmail.com
mail me if you have some corrections, deathwishes, or if you know the right tuning...

Tuning: please help me on this one.. is it Drop C(#) or drop D..?

Hey, this is my first tab ever, This is the second solo from this awesome emotional
Think it's quite close. May have made some mistakes though, please correct me, since I'm not
on all the parts! Also need some help on the quick part and the ''jumpy part'', even
coudn't really help me. I just want a good tab for everyone, and myself! A friend
mine helped me with the fast part in the middle, so I don't really know the tuning on
lowest string..
Hope it's easy to read!

(5:08) -begin!
e|----------------------------------11----------------------------------------|
B|/15-16~,--16-15~-16----------11bh====--11p8h11p8~---------------------------|
G|--------------------15~--12----------not sure about this--------------------|
D|----------------------------------------------------------------------------|
A|----------------------------------------------------------------------------|
E|----------------------------------------------------------------------------|
(5:14 +-)
e|----------------------------------------------------18-------18-------------|
B|-----------------------------------------/16~--18b====18b=======--18p16-----|
G|-10brb--8--8--10p8h10b--8--8---/15-15-13-------------------------------15~--|
D|---------10--------------10-------------------------------------------------|
A|----------------------------------------------------------------------------|
E|----------------------------------------------------------------------------|
(5:22) Fast Part (wtf!)                              |----3-------------------|
e|---------------------------------------------------|----------|-------------|
B|-20p16--20p16--------------------------------------|----------|-------------|
G|------19-----19-20-19-15/19\15---15----------------|----------|-------------|
D|-------------------------------17--17-15-17-15--17-|----------|-------------|
A|----------------------------------------------18---|1817161718|\11|---------|
E|---------------------------------------------------|----------|-------------|
Fast Part continue- directly after /11 (end of this fast part)
   |---3----------------------------------------------------------------------|
e|-|----------|---------------------------------------------------------------|
B|-|----------|---------------------------------------------------------------|
G|-|----------|---------------------------------------------------------------|
D|-|----------|--------------12~--13p12h13b-----------------------------------|
A|-|----------|--------10-13--------------------------------------------------|
E|-|1514131415|/17~--10-------------------------------------------------------|
End of the very fast part

Jumpy part (bluesy/jazzy, ascending)(Thanks to Synyster_gates_ !!)
E|---------------------------------------------------|
B|--/11------13-------(13)/15~~~~(15)\---------------|
G|---------------------------------------------------|
D|-----12-12----13-13--------------------------------|
A|---------------------------------------------------|
D|---------------------------------------------------|


Sweep picking recommended
e|-----------15h18b---18p15--------------15h18b---18p16p15-16b-16~--18\-------|
B|---------16--------------16----------16-------------------------------------|
G|-/17~--17------------------15h17~--17---------------------------------------|
D|----------------------------------------------------------------------------|
A|----------------------------------------------------------------------------|
E|----------------------------------------------------------------------------|

e|-----13--15-16-15~~--------------------------------------------------------|
B|-/16-----------------------------------------------------------------------|
G|---------------------------------------------------------------------------|
D|---------------------------------------------------------------------------|
A|---------------------------------------------------------------------------|
E|---------------------------------------------------------------------------|

||||||END||||||


************************************

| /   slide up
| \   slide down
| h   hammer-on
| p   pull-off
| ~   vibrato
| +   harmonic
| x   Mute note
| b   Bend
| pb  Pre-bend
| bh  Bend & hold
| br  Bend release
| pbr Pre-bend release
| brb Bend release bend
| ,   Tapped artificial harmonic
|=    Hold

************************************
Tap to rate this tab
 
# A B C D E F G H I J K L M N O P Q R S T U V W X Y Z