Song name
# A B C D E F G H I J K L M N O P Q R S T U V W X Y Z

Avenged Sevenfold - Victim tab

 Avenged Sevenfold- Victim
 Nightmare (July 2010)
 RIP James "The Rev" Sullivan
 standard tuning
e--------------------------------------------|
b---------6-6-4-------------6-6-4------------|
g-------5-------7---------5-------7-7^8-7----|
d-----5-----------------5-----------------8--| x4
a---3-----------------3----------------------|
e-------------------3------------------------|
    Eb                             Cm
e---------------------------------------------------------|
b---8--8-9-8--8-9-11-9-8--8-9-8-----4---------------------|
g---8-------------------------------5--?------------------|
d---8-------------------------------5---------------------|
a---6-------------------------------3---------------------|
e---------------------------------------------------------|
-as for the lead guitar played during Cm chord,mess around on the 3rd and 5th 
frets on the G string
Tap to rate this tab
 
# A B C D E F G H I J K L M N O P Q R S T U V W X Y Z