Avenged Sevenfold - Danger Line tab

Okay this is the Danger Line guitar solo, from the new album Nightmare. Im
almost POSITIVE this is right, i replayed it tons of times along with the
CD, so just try it. Ill try to get the full song if i can...

e|-------------------------17-18-17-15~-/17-15p13----13h15-13h15-13~-13-17-|
B|-/15-/17-/18-17p15----18------------------------15-----------------------|
G|-------------------17----------------------------------------------------|
D|-------------------------------------------------------------------------|
A|-------------------------------------------------------------------------|
D|-------------------------------------------------------------------------|

e|-18----/18-17-------/17~-18p17p15h17~-------15------------------------|
B|----15-----------18-------------------17h18----18-17h18p17p15-/17-/18-|
G|--------------17------------------------------------------------------|
D|----------------------------------------------------------------------|
A|----------------------------------------------------------------------|
D|----------------------------------------------------------------------|

e|--------------17-18-17-15~--15-17-18-18-20-/18-17~--------------/18-17-15-|
B|-17p15-----18--------------------------------------/17-15----15-----------|
G|-------17-------------------------------------------------15--------------|
D|--------------------------------------------------------------------------|
A|--------------------------------------------------------------------------|
D|--------------------------------------------------------------------------|

e|----------/17-15----17~-17-17-19-21~-17s21-22~-|
B|-18----18--------18----------------------------|
G|----17-----------------------------------------|
D|-----------------------------------------------|
A|-----------------------------------------------|
D|-----------------------------------------------|
Tap to rate this tab
 
# A B C D E F G H I J K L M N O P Q R S T U V W X Y Z