Avenged Sevenfold - Natural Born Killer tab

Avenged Sevenfold - Natural Born Killer - Nightmare


Intro

e|--------------------------------------------------------------------------|
B|--------------------------------------------------------------------------|
G|--------------------------------------------------------------------------|
D|--------------------------------------------------------------------------|
A|-----------------------------------------------------8-/-11---------------|
D|--0-0-0-0-12-0-0-0-11-0-0-0-12-0-0-0-8-0-0-0-7-0-0-0-8-/-11---------------|   x8



e|-----------------------Synyster Gates goes rad about here-----------------|
B|--------------------------------------------------------------------------|
G|--------------------------------------------------------------------------|
D|--------------------------------------------------------------------------|
A|--------------------------------------------------------------------------|
D|-1-1-1-1-1-1-1-1-1-1-1-1-1-1-1-1-1-1-1-1-1-1-1-1-1-1-1-1-1-1-1-1-----PING-|



Main Riff

e|--------------------------------------------------------------------------|
B|--------------------------------------------------------------------------|
G|--------------------------------------------------------------------------|
D|--------------------------------------------------------------------------|
A|--0-----------------------------------------------------------------------|
D|--0--0-0-0-0-3p0-5p0-7p0-6p0-5p0-3p0-0-0-0-0-0-0-0-0-0000000000000000-----| x2



verse
e|------------------------------------------------------------------------|
B|------------------------------------------------------------------------|
G|------------------------------------------------------------------------|
D|---------------------------------3-/-6----------------------------------|
A|--0------------------------------1-/-4----------------------------------|
D|--0--0-0-0-0-0-0-0-0-0-0------------------------------------------------| x2



e|--------------------------------------------------------------------------|
B|--------------------------------------------------------------------------|
G|--------------------------------------------------------------------------|
D|--------------------------------------------------------------------------|
A|--0-----------------------------------------------------------------------|
D|--0-0-0-0-0-0-0-0-0-0-0-0-0-0-0-0-5p0-7p0-8p0-7p0-5p0-7p0-5p0-7p0---------|



e|--------------------------------------------------------------------------|
B|--------------------------------------------------------------------------|
G|--------------------------------------------------------------------------|
D|--8----8----8--8----8----8--8----8----8--8--x--8-/-10---------------------|
A|--6----6----6--6----6----6--6----6----6--6--x--6-/--8---------------------|
D|--------------------------------------------------------------------------|



e|--------------------------------------------------------------------------|
B|--------------------------------------------------------------------------|
G|--------------------------------------------------------------------------|
D|--------------------------------------------------------------------------|
A|--0-----------------------------------------------------------------------|
D|--0--0-0-0-0-3p0-5p0-7p0-6p0-5p0-3p0-0-0-0-0-0-0-0-0-0000000000000000-----|



e|--------------------------------------------------------------------------|
B|--------------------------------------------------------------------------|
G|--------------------------------------------------------------------------|
D|--8----8----8--8----8----8--8----8----8--8--x--8-/-10---------------------|
A|--6----6----6--6----6----6--6----6----6--6--x--6-/--8---------------------|
D|--------------------------------------------------------------------------|



e|-------------------------------------------------------------------------|
B|-------------------------------------------------------------------------|
G|-------------------------------------------------------------------------|
D|-------------------------------------------------------------------------|
A|--0----------------------------------------------------------------------|
D|--0--0-0-0-0-3p0-5p0-7p0-6p0-5p0-3p0-0-0-0-0-0-0-0-0-0000000000000000----|



bridge
e|--------------------------------------------------------------------------|
B|--------------------------------------------------------------------------|
G|--------------------------------------------------------------------------|
D|- 8~~~~~~~~--5~~~~~~~~--8~~~~~~~~--5~~~~~~~~------------------------------|
A|--8~~~~~~~~--5~~~~~~~~--8~~~~~~~~--5~~~~~~~~------------------------------|
D|--8~~~~~~~~--5~~~~~~~~--8~~~~~~~~--5~~~~~~~~------------------------------|


ref.
e|------------------------------------------------------------------------|
B|------------------------------------------------------------------------|
G|------------------------------------------------------------------------|
D|--7--7--7-7--7--7--7-7--8--8--8-8--5--5--5-5----------------------------|
A|--5--5--5-5--7--7--7-7--8--8--8-8--5--5--5-5----------------------------|
D|--0--0--0-0--7--7--7-7--8--8--8-8--5--5--5-5----------------------------| x4


e|-------------------------------------------------------------------------|
B|-------------------------------------------------------------------------|
G|-------------------------------------------------------------------------|
D|--8-8--8-8--8-8--8-8--8--------------------------------------------------|
A|--6-6--6-6--6-6--6-6--6--------------------------------------------------|
D|-------------------------------------------------------------------------|


Repeat from Main riff


e|------------------------------------------------------------------------|
B|------------------------------------------------------------------------|
G|------------------------------------------------------------------------|
D|--5---0-1---8--8888-7-5-5553-2------------------------------------------|
A|--5---0-1---6--6666-5-3-5551-0------------------------------------------|
D|--5---0-1---------------------------------------------------------------| x8



e|-------------------------------------------------------------------------|
B|-------------------------------------------------------------------------|
G|-------------------------------------------------------------------------|
D|--8-8--8-8--8-8--8-8--8-------1---1---1---1---1--------------------------|
A|--6-6--6-6--6-6--6-6--6-------1---1---1---1---1--------------------------|
D|------------------------------1---1---1---1---1--------------------------|



Solo and stuff.. Will figure that one out later.


hope you enjoy this tab :) its my first ever.
- ferp
Tap to rate this tab
 
# A B C D E F G H I J K L M N O P Q R S T U V W X Y Z