Song name
# A B C D E F G H I J K L M N O P Q R S T U V W X Y Z

Avenged Sevenfold - So Far Away tab

Learned completely by ear, but I'm 99.9% sure its correct.


Solo
e----------------------------------------------------------------------------|
b-/5-9-12-12^r-8-8-10-10-12-10-5-8-/10-10^r8-8^------------------------------|
g----------------------------------------------------------------------------|
d----------------------------------------------------------------------------|
a ---------------------------------------------------------------------------|
e----------------------------------------------------------------------------|

e------------------------------14-14------10-15^r14--------------------------|
b-5-9-12-12^r-8-8-/15-15-17-17-------17\-------------15-17^-17---------------|
g----------------------------------------------------------------------------|
d----------------------------------------------------------------------------|
a----------------------------------------------------------------------------|
e----------------------------------------------------------------------------|



Outro Solo
e------------15-----------------------------------------------------------------|2x
b-/17-17-19------13-12-10-8-7-8/12-12-12----------------------------------------|
g-----------------------------------------9-10/12-------------------------------|
d-------------------------------------------------------------------------------|
a-------------------------------------------------------------------------------|
e-------------------------------------------------------------------------------|

e------------------------------------------------------------------------------|
b------7-8/12-12-12------------------------------------------------------------|
g-/12----------------9-10/12---------------------------------------------------|
d------------------------------------------------------------------------------|
a------------------------------------------------------------------------------|
e------------------------------------------------------------------------------|

e------------15-----------------------------------------------------------------|2x
b-/17-17-19------13-12-10-8-7-8/12-12-12----------------------------------------|
g-----------------------------------------9-10/12-------------------------------|
d-------------------------------------------------------------------------------|
a-------------------------------------------------------------------------------|
e-------------------------------------------------------------------------------|

e-------------------------------------------------------------------------------|4x
b------7-8/12-12-12-------------------------------------------------------------|
g-/12----------------9-10/12----------------------------------------------------|
d-------------------------------------------------------------------------------|
a-------------------------------------------------------------------------------|
e-------------------------------------------------------------------------------|


On 4th time
e----------------------------------------------------------------------------|
b------7---------------------------------------------------------------------|
g-/12-----9~-----------------------------------------------------------------|
d----------------------------------------------------------------------------|
a----------------------------------------------------------------------------|
e----------------------------------------------------------------------------|

Legend
-------
/ - Slide Up
\ - Slide Down
^ - Bend
r - Release
~ - Hold Note
Tap to rate this tab
 
# A B C D E F G H I J K L M N O P Q R S T U V W X Y Z