Avenged Sevenfold - Danger Line tab

This was trabscribed entirely by ear.and i think its completely correct.


e---------------------------17b18--17~-15~---15b16-13-15-13-13h15-13h15-13-|
b--/15-/17-/18--15--13--15-------------------------------------------------|
g--------------------------------------------------------------------------|
d--------------------------------------------------------------------------|
a--------------------------------------------------------------------------|
d--------------------------------------------------------------------------|

e------17-18------/18-17-----------17~--17-17-18-17-15-18-----------------|
b-/18--------15-----------13---/18----------------------------------------|
g-------------------------------------------------------------------------|
d-------------------------------------------------------------------------|
a-------------------------------------------------------------------------|
d-------------------------------------------------------------------------|

e------13--15-13-12h13p12-10--12-13--------/15-17-18-17-15~---------------|
b-/15--------------------------------15-13--------------------------------|
g-------------------------------------------------------------------------|
d-------------------------------------------------------------------------|
a-------------------------------------------------------------------------|
d-------------------------------------------------------------------------|

e--15-17-18-18-20-18-17~------------------18-17-15-13--------17-15-13-/17~-|
b-------------------------/18-15---15-17---------------13-15---------------|
g--------------------------------------------------------------------------|
d--------------------------------------------------------------------------|
a--------------------------------------------------------------------------|
d--------------------------------------------------------------------------|

e-15-15-17-17-18-20b21--17-18-19-20-21b22~--------------------------------|
b-------------------------------------------------------------------------|
g-------------------------------------------------------------------------|
d-------------------------------------------------------------------------|
a-------------------------------------------------------------------------|
d-------------------------------------------------------------------------|
Tap to rate this tab
 
# A B C D E F G H I J K L M N O P Q R S T U V W X Y Z