Song name
# A B C D E F G H I J K L M N O P Q R S T U V W X Y Z

Avenged Sevenfold - God Hates Us tab

My first tab, so take it easy. Enjoy! A7X FoREVer!!
Intro
e-------------------------------------------------------------------------------| 4x
b-10-----------10-----------8----------8----------6----------6------------------|
g-----10-----------10-----------9----------9----------7----------7--------------|
d---------12-----------12-----------10---------10---------7----------7----------|
a-------------------------------------------------------------------------------|
d-------------------------------------------------------------------------------|

e------------------------------------------------------------------------------|
b-5---------5------------------------------------------------------------------|
g----7----------7--------------------------------------------------------------|
d--------8----------8----------------------------------------------------------|
a------------------------------------------------------------------------------|
d------------------------------------------------------------------------------|


Still working on the next part.

Riff
e-----------------------------------------------------------------------------|7x
b-----------------------------------------------------------------------------|
g-7---7---5--8-7--------------------------------------------------------------|
d-7---7---5--8-7--------------------------------------------------------------|
a-5---5---3--6-5--------------------------------------------------------------|
d--000-000--------------------------------------------------------------------|

On the 7th time

e----------------------------------------------------------------------------|
b----------------------------------------------------------------------------|
g-7---7----5--6--------------------------------------------------------------|
d-7---7----5--6--------1-1-1-8-8-8-------------------------------------------|
a-5---5----3--8--------1-1-1-6-6-6-------------------------------------------|
d--000--000------------1-1-1-------------------------------------------------|

e-----------------------------------------------------------------------------|3x
b-----------------------------------------------------------------------------|
g-7---7---5-6-7---------------------------------------------------------------|
d-7---7---5-6-7---------------------------------------------------------------|
a-5---5---3-8-5---------------------------------------------------------------|
d--000-000--------------------------------------------------------------------|


On the 3rd time.

e----------------------------------------------------------------------------|
b----------------------------------------------------------------------------|
g-7---7----5--6--------------------------------------------------------------|
d-7---7----5--6--------1-1-1-8-8-8-------------------------------------------|
a-5---5----3--8--------1-1-1-6-6-6-------------------------------------------|
d--000--000------------1-1-1-------------------------------------------------|

e-----------------------------------------------------------------------------|3x
b-----------------------------------------------------------------------------|
g-7---7---5-6-7---------------------------------------------------------------|
d-7---7---5-6-7---------------------------------------------------------------|
a-5---5---3-8-5---------------------------------------------------------------|
d--000-000--------------------------------------------------------------------|


On the 3rd time.

e----------------------------------------------------------------------------|
b----------------------------------------------------------------------------|
g-7---7----5--6--------------------------------------------------------------|
d-7---7----5--6--------1-1-1-8-8-8-------------------------------------------|
a-5---5----3--8--------1-1-1-6-6-6-------------------------------------------|
d--000--000------------1-1-1-------------------------------------------------|


e----------------------------------------------------------------------------|
b----------------------------------------------------------------------------|
g----7-7\5-5/8-----10-10\8-8-7--------7-7\5-5/8------------------------------|
d-0--------------0-----------------0----------------1-1-1-1-0----------------|
a-0--5-5\3-3/6---0--8--8\6-6-5-----0--5-5\3-3/6-----1-1-1-1-0----------------|
d-0--------------0-----------------0----------------1-1-1-1-0----------------|

e----------------------------------------------------------------------------|
b----------------------------------------------------------------------------|
g----7-7\5-5/8-----10-10\8-8-7--------7-7\5-5/8------------------------------|
d-0--------------0-----------------0----------------1-1-1-1-0----------------|
a-0--5-5\3-3/6---0--8--8\6-6-5-----0--5-5\3-3/6-----1-1-1-1-0----------------|
d-0--------------0-----------------0----------------1-1-1-1-0----------------|


Pre Chorus
e----------------------------------------------------------------------------|
b----------------------------------------------------------------------------|
g----------------------------------------------------------------------------|
d----------------------------------------------------------------------------|
a----------------------------------------------------------------------------|
d-0-0-12-0-10-0-0-13-0-12-0-0-10-0-10-12----0-0-12-0-10-0-0-13-0-12-0-17-16--|

e----------------------------------------------------------------------------|
b----------------------------------------------------------------------------|
g----------------------------------------------------------------------------|
d----------------------------------------------------------------------------|
a----------------------------------------------------------------------------|
d-0-0-12-0-10-0-0-13-0-12-0-0-10-0-10-12----0-0-12-0-10-0-0-13-0-12-0-3-6-9--|

e----------------------------------------------------------------------------|
b----------------------------------------------------------------------------|
g----------------------------------------------------------------------------|
d----------------------------------------------------------------------------|
a----------------------------------------------------------------------------|
d-0-0-12-0-10-0-0-13-0-12-0-0-10-0-10-12----0-0-12-0-10-0-0-13-0-12-0-17-16--|

e----------------------------------------------------------------------------|
b----------------------------------------------------------------------------|
g----------------------------------------------------------------------------|
d----------------------------------------------------------------------------|
a----------------------------------------------------------------------------|
d-0-0-12-0-10-0-0-13-0-12-0-0-10-0-10-12----0-0-12-0-10-0-0-13-0-12-0-3-6-9--|


Chorus
e-----------------------------------------------------------------------------|4x
b-----------------------------------------------------------------------------|
g-----------------------------------------------------------------------------|
d-0-/6-3\9-6--3-6-3\9-6-------------------------------------------------------|
a-0-/6-3\9-6--3-6-3\9-6-------------------------------------------------------|
d-0-/6-3\9-6--3-6-3\9-6-------------------------------------------------------|


(Again)
e----------------------------------------------------------------------------|
b----------------------------------------------------------------------------|
g----7-7\5-5/8-----10-10\8-8-7--------7-7\5-5/8------------------------------|
d-0--------------0-----------------0----------------1-1-1-1-0----------------|
a-0--5-5\3-3/6---0--8--8\6-6-5-----0--5-5\3-3/6-----1-1-1-1-0----------------|
d-0--------------0-----------------0----------------1-1-1-1-0----------------|

e----------------------------------------------------------------------------|
b----------------------------------------------------------------------------|
g----7-7\5-5/8-----10-10\8-8-7--------7-7\5-5/8------------------------------|
d-0--------------0-----------------0----------------1-1-1-1-0----------------|
a-0--5-5\3-3/6---0--8--8\6-6-5-----0--5-5\3-3/6-----1-1-1-1-0----------------|
d-0--------------0-----------------0----------------1-1-1-1-0----------------|

Riff
e-----------------------------------------------------------------------------|3x
b-----------------------------------------------------------------------------|
g-7---7---5-6-7---------------------------------------------------------------|
d-7---7---5-6-7---------------------------------------------------------------|
a-5---5---3-8-5---------------------------------------------------------------|
d--000-000--------------------------------------------------------------------|


On 3rd time.
e----------------------------------------------------------------------------|
b----------------------------------------------------------------------------|
g-7---7----5--6--------------------------------------------------------------|
d-7---7----5--6--------1-1-1-8-8-8-------------------------------------------|
a-5---5----3--8--------1-1-1-6-6-6-------------------------------------------|
d--000--000------------1-1-1-------------------------------------------------|

e-----------------------------------------------------------------------------|9x
b-----------------------------------------------------------------------------|
g-7---7---5-6-7---------------------------------------------------------------|
d-7---7---5-6-7---------------------------------------------------------------|
a-5---5---3-8-5---------------------------------------------------------------|
d--000-000--------------------------------------------------------------------|


Pre Chorus
e----------------------------------------------------------------------------|
b----------------------------------------------------------------------------|
g----------------------------------------------------------------------------|
d----------------------------------------------------------------------------|
a----------------------------------------------------------------------------|
d-0-0-12-0-10-0-0-13-0-12-0-0-10-0-10-12----0-0-12-0-10-0-0-13-0-12-0-17-16--|


e----------------------------------------------------------------------------|
b----------------------------------------------------------------------------|
g----------------------------------------------------------------------------|
d----------------------------------------------------------------------------|
a----------------------------------------------------------------------------|
d-0-0-12-0-10-0-0-13-0-12-0-0-10-0-10-12----0-0-12-0-10-0-0-13-0-12-0-3-6-9--|


e----------------------------------------------------------------------------|
b----------------------------------------------------------------------------|
g----------------------------------------------------------------------------|
d----------------------------------------------------------------------------|
a----------------------------------------------------------------------------|
d-0-0-12-0-10-0-0-13-0-12-0-0-10-0-10-12----0-0-12-0-10-0-0-13-0-12-0-17-16--|

e----------------------------------------------------------------------------|
b----------------------------------------------------------------------------|
g----------------------------------------------------------------------------|
d----------------------------------------------------------------------------|
a----------------------------------------------------------------------------|
d-0-0-12-0-10-0-0-13-0-12-0-0-10-0-10-12----0-0-12-0-10-0-0-13-0-12-0-3-6-9--|


Chorus
e-----------------------------------------------------------------------------|4x
b-----------------------------------------------------------------------------|
g-----------------------------------------------------------------------------|
d-0-/6-3\9-6--3-6-3\9-6-------------------------------------------------------|
a-0-/6-3\9-6--3-6-3\9-6-------------------------------------------------------|
d-0-/6-3\9-6--3-6-3\9-6-------------------------------------------------------|


(Again)
e----------------------------------------------------------------------------|
b----------------------------------------------------------------------------|
g----7-7\5-5/8-----10-10\8-8-7--------7-7\5-5/8------------------------------|
d-0--------------0-----------------0----------------1-1-1-1-0----------------|
a-0--5-5\3-3/6---0--8--8\6-6-5-----0--5-5\3-3/6-----1-1-1-1-0----------------|
d-0--------------0-----------------0----------------1-1-1-1-0----------------|


e----------------------------------------------------------------------------|
b----------------------------------------------------------------------------|
g----7-7\5-5/8-----10-10\8-8-7--------7-7\5-5/8------------------------------|
d-0--------------0-----------------0----------------1-1-1-1-0----------------|
a-0--5-5\3-3/6---0--8--8\6-6-5-----0--5-5\3-3/6-----1-1-1-1-0----------------|
d-0--------------0-----------------0----------------1-1-1-1-0----------------|


Breakdown
e----------------------------------------------------------------------------|
b----------------------------------------------------------------------------|
g----------------------------------------------------------------------------|
d----------------------------------------------------------------------------|
a-0-0-0-0-0---0-0-0-0---0-0-0-0---0-0-0--------------------------------------|
d-0-0-0-0-0---0-0-0-0---0-0-0-0---0-0-0--------------------------------------|


e----------------------------------------------------------------------------|
b----------------------------------------------------------------------------|
g----------------------------------------------------------------------------|
d----------------------------------------------------------------------------|
a----------------------------------------------------------------------------|
d-0-0-12-0-10-0-0-13-0-12-0-0-10-0-10-12----0-0-12-0-10-0-0-13-0-12-0-17-16--|


e----------------------------------------------------------------------------|
b----------------------------------------------------------------------------|
g----------------------------------------------------------------------------|
d----------------------------------------------------------------------------|
a----------------------------------------------------------------------------|
d-0-0-12-0-10-0-0-13-0-12-0-0-10-0-10-12----0-0-12-0-10-0-0-13-0-12-0-3-6-9--|


e----------------------------------------------------------------------------|
b----------------------------------------------------------------------------|
g----------------------------------------------------------------------------|
d----------------------------------------------------------------------------|
a----------------------------------------------------------------------------|
d-0-0-12-0-10-0-0-13-0-12-0-0-10-0-10-12----0-0-12-0-10-0-0-13-0-12-0-17-16--|


e----------------------------------------------------------------------------|
b----------------------------------------------------------------------------|
g----------------------------------------------------------------------------|
d----------------------------------------------------------------------------|
a----------------------------------------------------------------------------|
d-0-0-12-0-10-0-0-13-0-12-0-0-10-0-10-12----0-0-12-0-10-0-0-13-0-12-0-3-6-9--|

No Solo Yet. But rhythm for solo is the chorus.



e-----------------------------------------------------------------------------|4x
b-----------------------------------------------------------------------------|
g----7-7\5-5/8-----10-10\8-8-7--------7-7\5-5/8-------------------------------|
d-0--------------0-----------------0----------------1-1-1-1-0-----------------|
a-0--5-5\3-3/6---0--8--8\6-6-5-----0--5-5\3-3/6-----1-1-1-1-0-----------------|
d-0--------------0-----------------0----------------1-1-1-1-0-----------------|

The Intro is the outro also. Sorry for any mistakes. Comment and Rate. Thnks & Enjoy!!!
Tap to rate this tab
 
# A B C D E F G H I J K L M N O P Q R S T U V W X Y Z