Song name
# A B C D E F G H I J K L M N O P Q R S T U V W X Y Z

Avenged Sevenfold - Beast And The Harlot tab

E-10-----12-----16----13/10--10---------------------------------------------|
B-13b----15b----19b--------13--13b-------8---9---10--11---------------------|
G----------------------------------------10b-11b-12b-13b--------------------|
D---------------------------------------------------------------------------|
A---------------------------------------------------------------------------|
D---------------------------------------------------------------------------|

E-----------------------------13141617~~~~~17----17-------------/20-17-------|
B-13121110-14131211-1514131416---------------1817--171817--17----------20-17-|
G--------------------------------------------------------17--17--------------|
D----------------------------------------------------------------------------|
A----------------------------------------------------------------------------|
D----------------------------------------------------------------------------|

E-------------------------------------------------------------------------12-|
B-----------------------------------------------------------/9101311101113---|
G-7-5----------------5-6-7~~~~~-7/9~~~~~-7-9-10~~~~~~~-9h10------------------|
D--------------5-6-7---------------------------------------------------------|
A------8-/-7-8---------------------------------------------------------------|
D----------------------------------------------------------------------------|

E-13~~~~-/13-/15-/12--------------------------------------------------------|
B--------------------/13-/13brbr-13P.H.-------------------------------------|
G---------------------------------------------------------------------------|
D---------------------------------------------------------------------------|
A---------------------------------------------------------------------------|
D---------------------------------------------------------------------------|

E---------------------------------------I------------------------------------|
B---------------------------------------I------------------------------------|
G--------------7-8-8-7------------------I---------------7-8-10-8-7-10-8-7----|
D-------7-8-10---------10-8-7----7------I--------7-8-10-------------------10-|
A-5-7-8-----------------------10---10-8-I-7-8-10-----------------------------|
D---------------------------------------I------------------------------------|

E----------------------------------------------10121312101210----------------|
B------------------------------------1011131113--------------13-11101110-----|
G-------------------7-9-10/1210910120-----------------------------------1210-|
D-8-7-7------7-8-10----------------------------------------------------------|
A-------8-10-----------------------------------------------------------------|
D----------------------------------------------------------------------------|

E-22212019------------------------------------------------------------------|
B---------22212019----------------22212019----------------------------------|
G-----------------22212019----------------22212019--------------------------|
D-------------------------22212019----------------22212019------------------|
A---------------------------------------------------------22212019----------|
D---------------------------------------------------------------------------|

E-18171615-------------------------------------------------------------------|
B---------18171615----------------18171615-------------------------12b~~~~~~-|
G-----------------18171615----------------18171615---------------------------|
D-------------------------18171615----------------18171615-------------------|
A---------------------------------------------------------18171615-----------|
D----------------------------------------------------------------------------|

OMG My first tabs! This solo is really difficult if you try to hit every single note
and play these tabs to the smallest detail. But there are simpler ways to do it, this is
the advanced people who really want to get every song 100% accurate, which these tabs 
So please rate it and thanks!
A7x for Life!!!!!!!!
Sorry if the first bar is messed up but i just previewed it and its messed up but the
part is pretty self explanitory
Tap to rate this tab
 
# A B C D E F G H I J K L M N O P Q R S T U V W X Y Z