Song name
# A B C D E F G H I J K L M N O P Q R S T U V W X Y Z

Avenged Sevenfold - Girl I Know tab

GIRL I KNOW TAB

Have fun this its a somewhat difficult solo so keep practicing it :)

E---------------------------------------------------------------------|
B-------------------------13b15-13~--15-15-15-15-15-15-15-15-13----13-|
G---------------------------------------------------------------15----|
D-12-12-12-12-12-12-12-12---------------------------------------------|
A---------------------------------------------------------------------|
D---------------------------------------------------------------------|

E-17b19p15-16b17~-------------------------------|
B-------------------13b15-12-11-10--------------|
G----------------------------------13-----------|
D-------------------------------------12-11-10~-|
A-----------------------------------------------|
D-----------------------------------------------|

E-----------------------------------------------------------------17b19r17-|
B-------------------------13b15-13~--15-15-15-15-15-15-15-15----15---------|
G------------------------------------------------------------13------------|
D-12-12-12-12-12-12-12-12--------------------------------------------------|
A--------------------------------------------------------------------------|
D--------------------------------------------------------------------------|
-
E----------------------------------------------------------------------------|
B-15tttt/22-13tttt/23-12tttt/22-10-13-12-10----------------------------------|
G--------------------------------------------13-12-10~-----------------------|
D----------------------------------------------------------------------------|
A----------------------------------------------------------------------------|
D----------------------------------------------------------------------------|

(x2)
E-10-8----8------8--8------------------------------------------------------|
B------10---10-9------10-9--------9--9-------------------------------------|
G--------------------------10-9-7------10-9-7-9-7----7-9-10--10-7~---------|
D-------------------------------------------------/6-----------------------|
A--------------------------------------------------------------------------|
D--------------------------------------------------------------------------|

E-10-8----8------8--8------------------------------------------------------|
B------10---10-9------10-9--------9--9--------------------8-/13-10~--------|
G--------------------------10-9-7------10-9-7-9-7-/7-9-10------------------|
D--------------------------------------------------------------------------|
A--------------------------------------------------------------------------|
D--------------------------------------------------------------------------|

E-------------/20-17~------------------------------------------------------|
B----13-15-18--------------------------------------------------------------|
G-14-----------------------------------------------------------------------|
D--------------------------------------------------------------------------|
A--------------------------------------------------------------------------|
D--------------------------------------------------------------------------|

****************************************************************************

E-20b22--------------------------------------------------------------------|
B-------------------13-13-11-10-8~-----------------------------------------|
G--------------------------------------------------------------------------|
D--------------------------------------------------------------------------|
A--------------------------------------------------------------------------|
D--------------------------------------------------------------------------|

TADA! Rate ! :)
Tap to rate this tab
 
# A B C D E F G H I J K L M N O P Q R S T U V W X Y Z