Song name
# A B C D E F G H I J K L M N O P Q R S T U V W X Y Z

Avenged Sevenfold - 4 00 Am tab

 Avenged Sevenfold
                 4:00 A.M. (solo) TAB
                    Drop-D tuning

I'm pretty confident that I got most of this right. Let me know for any corrections. Thanks.




(2:59)
E|-------/10-|----/10-|----/10-|--------|                                   
B|--/11------|-/10----|-/8-----|-10/13--|
G|-----------|--------|--------|--------|
D|-----------|--------|--------|--------|   x2
A|-----------|--------|--------|--------|
D|-----------|--------|--------|--------|

(3:13)
E|-10--10--12-13-|-12--12--13-15-|-13--13--15-16-|-15--15--16-18|
B|---------------|---------------|---------------|--------------|
G|---------------|---------------|---------------|--------------|
D|---------------|---------------|---------------|--------------|
A|---------------|---------------|---------------|--------------|
D|---------------|---------------|---------------|--------------|

(3:19)
E|16-13----------13|16-13----------13|15-12----------12|15-12----------12|
B|-----13------13--|-----13------13--|-----13------13--|-----13------13--|
G|-------13--13----|-------13--13----|-------12--12----|-------12--12----|x2
D|---------15------|---------15------|---------14------|---------14------|
A|-----------------|-----------------|-----------------|-----------------|
D|-----------------|-----------------|-----------------|-----------------|

E|-----------------|12-------------|
B|16-13----------13|---------------|
G|-----13------13--|---------------|
D|-------13--13----|---------------|
A|---------15------|---------------|
D|-----------------|---------------|

(3:36)
E|----------|---------|---------|-----------|
B|----------|---------|---------|-----------|
G|----------|---------|---------|-----------|
D|----------|---------|---------|-----------|
A|5--------5|3-------3|2-------2|1-----0----|
D|----------|---------|---------|-----------|

(3:42)
E|-----------13-15b17r15-|--------12-13-15b17r15-|--------10-12-17b18r17-|
B|------15-17------------|------13---------------|------12---------------|
G|----14-----------------|----12-----------------|----10-----------------|
D|--15-------------------|--14-------------------|--12-------------------|
A|17---------------------|15---------------------|14---------------------|
D|-----------------------|-----------------------|-----------------------|

E|13-10--------13-10-12-13-12-10-12-|    |13-12-10-12-|
B|-----11---------------------------|    |------------|
G|-------10--10---------------------| x2 |------------| 
D|---------12-----------------------|    |------------|  
A|----------------------------------|    |------------|
D|----------------------------------|    |------------|

(3:56)
E|------------|--------------|--------------|------------|
B|13---13--/10|/13---13-15-17|17-18-15-13-13|/15-------10|
G|------------|--------------|--------------|----10-12---|
D|------------|--------------|--------------|------------|
A|------------|--------------|--------------|------------|
D|------------|--------------|--------------|------------|

E|------------|----------|------------|17--------|
B|13-13\10/13-|-13-15-17-|17-18-15-13-|----------|
G|------------|----------|------------|----------|
D|------------|----------|------------|----------|
A|------------|----------|------------|----------|
D|------------|----------|------------|----------|

                             |---3---||---3---||---3---||---3---|
E|15b17r15-13-|15--17-17b18-|17-15-13----------------------------------|
B|------------|-------------|---------17-15-13-18-17-15----------------|
G|------------|-------------|---------------------------15-14-12-------|
D|------------|-------------|------------------------------------15-13-|
A|------------|-------------|------------------------------------------|
D|------------|-------------|------------------------------------------|

 |--------6-------||-------6-------||-------6-------||-------6-------|
E|13-12-10-9-10-12-13-12-10-9-10-12-13-12-10-9-10-12-13-12-10-9-10-12-|
B|--------------------------------------------------------------------|
G|--------------------------------------------------------------------|
D|--------------------------------------------------------------------|
A|--------------------------------------------------------------------|
D|--------------------------------------------------------------------|


  |------6------||------6------|
E|12-10-9-8-9-10-12-10-9-8-9-10--10--8--10-|-10/13--\10-|
B|-----------------------------------------|------------|
G|-----------------------------------------|------------|
D|-----------------------------------------|------------|
A|-----------------------------------------|------------|
D|-----------------------------------------|------------|
Tap to rate this tab
 
# A B C D E F G H I J K L M N O P Q R S T U V W X Y Z