Avenged Sevenfold - Sidewinder tab

Seen quite a few versions of this, yet none of them included the whole song. Decided it 
was time for the whole song to be tabbed on here. I'm about 99% sure this is right.   
Keep in mind A7X LOVES to over-complicate things, so i simplified a few things in here.
Tuning: DADGBE

Key: / = Slide up to.
     \ = Slide down from.
     * = Artificial Harmonic (squeelie)
     p = pull of
     h = hammer on
     b = bend
     ~ = vibrato
     x = muted
     . = palm mute
     T = tremelo picked
Intro:
------------------------------------------------------------------------------|
------------------------------------------------------------------------------|
-/17--15--19--17--15--14---12-14-15-14-12-14--------------------14---12-------|
---------------------------------------------14--/15---/12--15----------15-14-|
------------------------------------------------------------------------------|
------------------------------------------------------------------------------|

-----------------------------------------------|
-----------------------------------------------|
-/17--15--19--17--15--14---12-14-15-14-12-14---|
--------------------------------------------14-|
-----------------------------------------------|
-----------------------------------------------|

Guitar 1
------------------------|
------------------------|
------------------------| x4
-0-000-000--000-0-0-00--|
-0-000-000--000-0-0-00--|
-0-000-000--000-0-0-00--|

Guitar 2
-----------------------------------------|
-----------------------------------------|
-11/-14--7-777-7/-15151515-15-15-15/17---|  x2
-x/--x---x-xxx-x/-x-x-x-x--x--x--x/-x----|
-9/--12--5-555-5/-13131313-13-13-13/15---|
-----------------------------------------|

-1414----1616----2020----20--|b
-----1515----1717----1919----|
-----------------------------|
-----------------------------|
-----------------------------|
-----------------------------|

-------------------------------------------------------------------|
-------------------------------------------------------------------|
-------------------------------------------------------------------| x2
-0-7---0-5-------0-3-2-0-5-3-2p0--0-7---0-5-------0-3-2-0-/8-7-----|
-----8-----7-0-3----------------------8-----7-0-3--------------7---|
-------------------------------------------------------------------|

-------------------------------|
-------------------------------|
-------------------------------|
-8---8---7--7-----------8---7--|
--10--10--8--8--7-4-5-7--10--8-|
-------------------------------|
 . . ..  .. ..  . . . . . . .. PM

-----------------------------------------5-|
------------------------------6p5h6p5h6-8--|
-7--7--5--5----------------7p6-------------|
--8--8--7--7--------7p6h7h8----------------|
-------------------------------------------|
-------------------------------------------|

-----------------------------------------------------------------------------|
-----------------------------------------------------------------------------|
--------------14---12--------/17--15---19--17--15--14---12-14-15-14-12-14----|
-/15---/12--15----------15-14---------------------------------------------14-|
-----------------------------------------------------------------------------|
-----------------------------------------------------------------------------|
^x2 (sorry, ran out of space for the "x2")

Guitar 1
------------------------|
------------------------|
------------------------| x4
-0-000-000--000-0-0-00--|
-0-000-000--000-0-0-00--|
-0-000-000--000-0-0-00--|

Guitar 2

-----------------------------------------------|
-----------------------------------------------|
-11/-14--7-777-7/-15151515-15-15-15/17  x4 <---|This time it starts with Guitar
-x/--x---x-xxx-x/-x-x-x-x--x--x--x/-x----------|         1 and plays 4 times.
-9/--12--5-555-5/-13131313-13-13-13/15---------|
-----------------------------------------------|

-------------|
-------------|
-------------|
-------------|
5-3-8--------|
-------7-8-7-|

-1414----1616----2020----20--|b
-----1515----1717----1919----|
-----------------------------|
-----------------------------|
-----------------------------|
-----------------------------|

-------------------------------------------------------------------|
-------------------------------------------------------------------|
-------------------------------------------------------------------| x2
-0-7---0-5-------0-3-2-0-5-3-2p0--0-7---0-5-------0-3-2-0-/8-7-----|
-----8-----7-0-3----------------------8-----7-0-3--------------7---|
-------------------------------------------------------------------|

-------------------------------|
-------------------------------|
-------------------------------|
-8---8---7--7-----------8---7--|
--10--10--8--8--7-4-5-7--10--8-|
-------------------------------|
 . . ..  .. ..  . . . . . . .. PM

-----------------------------------------5-|
------------------------------6p5h6p5h6-8--|
-7--7--5--5----------------7p6-------------|
--8--8--7--7--------7p6h7h8----------------|
-------------------------------------------|
-------------------------------------------|

-----------------------------------------------------------------------------|
-----------------------------------------------------------------------------|
--------------14---12--------/17--15---19--17--15--14---12-14-15-14-12-14----|
-/15---/12--15----------15-14---------------------------------------------14-|
-----------------------------------------------------------------------------|
-----------------------------------------------------------------------------|
^x2

-------------------------------------------------------------|
-------------------------------------------------------------|
-------------------------------------------------------------| x2
3--6--5--/10-8-6-5-6--/11-11-10-8-6--6--6-5--5-6-6--1--1--1--|
-------------------------------------------------------------|
-------------------------------------------------------------|

-----------11----------11--------------11h14p11-----------|   \
---------11--11------11--12----------12--------12---------|    \
-------11------11--11------11------11------------11-------|     \
-----8-----------13----------13--13----------------    ---|
-6-9---------------------------14------------------    ---|
                                                        | both parts x2
-16-13----------13h16p13----14-13-11---------------    ---|
------13------13--------13----------12-11\---------    ---|
--------13--13------------13--------------11-10-8--    ---|
----------15-------------------------------------10-------|     /
----------------------------------------------------------|    /
----------------------------------------------------------|   /

------------------|
------------------|
-7--9--1012-10-9--| x7
-x--x--x/x--x--x--|
-5--7--8/10-8--7--|
------------------|

---------------------------------------------------------|
---------------------------------------------------------|
---------------------------------------------------------|
-3---------7---------7------10---------10---------10-----|
-5-0-0-0-0-5-0-0-0-0-5-0-0---7-7-7-7-7--7-7-7-7-7--7-7-7-|
---0-0-0-0---0-0-0-0---0-0-------------------------------|
   . . . .   . . . .   . .     . . . .    . . . .    . . PM

------------------------------|
------------------------------|
------------------------------|
-10---------10---------10-----|
--8-8-8-8-8--8-8-8-8-8--8-8-8-|
------------------------------|
    . . . .    . . . .    . . PM


-------------------------------------------------------|
-------------------------------------------------------|
-------------------------------------------------------|
-10---------5---------7------6---------6---------6-----|
--8-8-8-8-8-8-8-8-8-8-8-8-8--4-4-4-4-4-4-4-4-4-4-4-4-4-|
-------------------------------------------------------|
    . . . .   . . . .   . .    . . . .   . . . .   . . PM

-----------------------------------------------------------------------------|
-6--6--6--6--4-2-4~--/5-/7--9--9--9--9-7-5-7~--4-5-7--11--11--11--11--11--12-|
-----------------------------------------------------------------------------|
-----------------------------------------------------------------------------|
-----------------------------------------------------------------------------|
-----------------------------------------------------------------------------|

------------------------------------------------------------|
-14-14b---/11--11--11--11--12--14-14b---/14--/16--12h14-15--|b
------------------------------------------------------------|
------------------------------------------------------------|
------------------------------------------------------------|
------------------------------------------------------------|

Electric Guitar Solo

Guitar 1
----------------------------------------------|
-----------10--10-12-13-10-13/15-13-12-10-----|
-10-9-10-12--12--------------------------12---|  x2
----------------------------------------------|
----------------------------------------------|
----------------------------------------------|

Guitar 2
-----------------------------------------|
-------------------8-10-8-10-11-10-8-----|
---------9-10-9-10------------------10-9-|   x2
-12-10-12--------------------------------|
-----------------------------------------|
-----------------------------------------|

Guitar 1
-----------------------------------------------|
------------14--14-15-17-14-17/19-17-15-14-----|
-14-13-14-16--16--------------------------15---|  x2
-----------------------------------------------|
-----------------------------------------------|
-----------------------------------------------|

Guitar 2
------------------------------------------------|
--------------------12-14-12-14-15-14-12--------|
---------13-14-13-14--------------------14-13---|  x2
-16-14-16---------------------------------------|
------------------------------------------------|
------------------------------------------------|

Guitar 1
----------------------------------------------|
-----------10--10-12-13-10-13/15-13-12-10-----|
-10-9-10-12--12--------------------------12---|  x2
----------------------------------------------|
----------------------------------------------|
----------------------------------------------|

Guitar 2
-----------------------------------------|
-------------------8-10-8-10-11-10-8-----|
---------9-10-9-10------------------10-9-|   x2
-12-10-12--------------------------------|
-----------------------------------------|
-----------------------------------------|

Guitar 1
-----------------------------------------------|
------------14--14-15-17-14-17/19-17-15-14-----|
-14-13-14-16--16--------------------------15---|  x2
-----------------------------------------------|
-----------------------------------------------|
-----------------------------------------------|

Guitar 2
------------------------------------------------|
--------------------12-14-12-14-15-14-12--------|
---------13-14-13-14--------------------14-13---|  x2
-16-14-16---------------------------------------|
------------------------------------------------|
------------------------------------------------|

     sweep       sweep       sweep
    |------|    |------|    |---------------------|
-17-------17-20-------17-15-------15-18-17-15-----|
-------18----------18----------17-------------17--|
----19----------19----------17--------------------|
--------------------------------------------------|
--------------------------------------------------|
--------------------------------------------------|

                Triplet
                |----|
-------------------------------|
-19---16---14------------------|
---19---17---15-151413-12~ <---|Quick Vibrato
-------------------------------|
-------------------------------|
-------------------------------|

------------------------------------------------------------------------------|
------------------------------------------------------------------------------|
-/17--15--19--17--15--14---12-14-15-14-12-14--------------------14---12-------|
---------------------------------------------14--/15---/12--15----------15-14-|
------------------------------------------------------------------------------|
------------------------------------------------------------------------------|

-------------------------------------------------|
-------------------------------------------------|
-/17--15--19--17--15--14---12-14-15-14-12-14-----|  x2
--------------------------------------------14---|
-------------------------------------------------|
-------------------------------------------------|

-------------------------------------------------------------|
-------------------------------------------------------------|
-------------------------------------------------------------| x2
3--6--5--/10-8-6-5-6--/11-11-10-8-6--6--6-5--5-6-6--1--1--1--|
-------------------------------------------------------------|
-------------------------------------------------------------|

-----------11----------11--------------11h14p11-----------|   \
---------11--11------11--12----------12--------12---------|    \
-------11------11--11------11------11------------11-------|     \
-----8-----------13----------13--13----------------    ---|
-6-9---------------------------14------------------    ---|
                                                        | both parts x2
-16-13----------13h16p13----14-13-11---------------    ---|
------13------13--------13----------12-11\---------    ---|
--------13--13------------13--------------11-10-8--    ---|
----------15-------------------------------------10-------|     /
----------------------------------------------------------|    /
----------------------------------------------------------|   /

Now the acoustic part. there are 3 of them, all in drop D tuning.

Guitar 1
-------------------------------------------------|
-6--6-x-x-6-6-x-x-6-x-x---5--5-x-x-5-5-x-x-5-x-x-|
-7--7-x-x-7-7-x-x-7-x-x---5--5-x-x-5-5-x-x-5-x-x-|
-7--7-x-x-7-7-x-x-7-x-x---5--5-x-x-5-5-x-x-5-x-x-|
-5--5-x-x-5-5-x-x-5-x-x---3--3-x-x-3-3-x-x-3-x-x-|
-------------------------------------------------|

----------------------------------------------------|
--3--3-x-x-3-3-x-x-3-x-x---3--3-3-3-3-3-3-3-x-x-5-5-|
--0--0-x-x-0-0-x-x-0-x-x---0--0-0-0-0-0-0-0-x-x-5-5-|
--3--3-x-x-3-3-x-x-3-x-x---3--3-3-3-3-3-3-3-x-x-5-5-|
--1--1-x-x-1-1-x-x-1-x-x---1--1-1-1-1-1-1-1-x-x-3-3-|
----------------------------------------------------|
^This guitar plays these two parts throughout the entire acoustic bit. The strumming is 
a little complicated to explain on tab, so just take the chords and listen to the song 
to figure it out perfectly.

Guitar 2
-----10-----------------13------12--------------------8-------|   \
--------------------------------------------------------------|    \
7/10-----------10-------14------12--------------------9-------|     \
-------------------------------------------------------    ---|
-------------------------------------------------------    ---|
-------------------------------------------------------    ---|
                                                            |
-8--10-----10--------------------10-----------12            |
------------------------------------------------            |
-9--10-----10---------------7/10------10---12---            |
------------------------------------------------            |
------------------------------------------------            |
------------------------------------------------            |  x4
                                                            |
-----13------------------15------12------------12--------8  |
-----------------------------------------13---------------  |
-14------------14--------15------------------------------9  |
----------------------------------------------------------  |
----------------------------------------------------------  |
----------------------------------------------------------  |
                                                            |
-8--10-----10                                               |
-------------                                               |
-9--10-----10                                               |
-------------                                               |
-------------                                               |
-------------                                               |
                                                            |
-8--10-----10--------------------10-----------12-------------|            /
-------------------------------------------------------------|           /
-9--10-----10---------------7/10-----10---12-----------------|          /
-------------------------------------------------------------|         /
-------------------------------------------------------------|        /
-------------------------------------------------------------|       /

Guitar 3
-----------5------------------------8--|
5h6p5-5-6-8-8-6-5---5-6-5--------------|
-----7------------7-------7-6-5--7/9---|
---------------------------------------|
---------------------------------------|
---------------------------------------|

--------------------5-6-5-6-5---------------|
-------------5-6-5-6-----------8-6-5-6p5----|
-----6-7-6-7------------------7-----7---6-5-|
8-7-8---------------------------------------|
--------------------------------------------|
--------------------------------------------|

5-8---5------------------------------------|
----6----6--------------------/3T-5T-6T-8T-|
-------7---7--------------5-5-/3T-5T-7T-9T-|
----------7--7--------------x--------------|
------------8--5-8-5-3-5/7--7--------------|
-------------------------------------------|

Guitar 2 or 3
-------5h8p5-5-5---------8----/12-8----8-/15-13-12--12---------------|
----------------------5-6-5-6--------10-----------13--13---13-14-15~-|
---5-7-----------7-5-7-------------10-------------------12-----------|
---------------------------------------------------------------------|
5-8------------------------------------------------------------------|
---------------------------------------------------------------------|

13-10----------------------------------------------10-13-10-----------|
-----13-10------------------------------------10-13--------13-10------|
-----------12-13/12p10----10-12p10~------10-12------------------12-10-|
-----------------------12-----------10-12-----------------------------|
----------------------------------------------------------------------|
----------------------------------------------------------------------|

--------------9-10-12-10-9-8-10-8-10/12-|
------------10--------------------------|
-----9-10-12----------------------------|
11-12-----------------------------------|
----------------------------------------|
----------------------------------------|

15p12-12-12h13p12---------------------------------------------|
------------------15-13-15-10---------------------------------|
-----------------------------12-10-----12-10------------------|
----------------------------------12-10-----12-12-12-12-10-12-|
--------------------------------------------------------------|
--------------------------------------------------------------|

---------------------------------------------|
-----------------------13-12-10-------13-17b-|
------9-12-10-9---10-12----------12-14-------|
10--10----------12---------------------------|
--12-----------------------------------------|
---------------------------------------------|
                                                                   \
-13----12-10-----------13-12-10------------13-12-10-11--12-10-8---------|     \
------------------------------------------------------------------------|      \
------------------------------------------------------------------------|       \
---------------------------------------------------------------      ---|
---------------------------------------------------------------      ---|
---------------------------------------------------------------      ---|
                                                                      |
--------12--10--8------------12-10-8-9---10--8-6-----------10--8--6   |
-------------------------------------------------------------------   |
-------------------------------------------------------------------   | x3
-------------------------------------------------------------------   |
-------------------------------------------------------------------   |
-------------------------------------------------------------------   |
                                                                      |
--10--8--6--8--10--8--6-----6--8-10---12-10--8-----8-10-12------     ---|
-------------------------6----------------------8---------------     ---|
------------------------------------------------------------------------|      /
------------------------------------------------------------------------|     /
------------------------------------------------------------------------|    /
------------------------------------------------------------------------|   /

This too over 3 hours or to tab, but don't expect perfection. If you want the 100% way 
then buy their tab book.

Hope you enjoyed

Thanks!
Tap to rate this tab
 
# A B C D E F G H I J K L M N O P Q R S T U V W X Y Z