Guitaretab - guitar tabs
Song name
# A B C D E F G H I J K L M N O P Q R S T U V W X Y Z

Avenged Sevenfold - So Far Away tab

-------------------------------------------------------------------------------
			     So Far Away - Avenged Sevenfold
-------------------------------------------------------------------------------
Tabbed by:avsHRSHES
Email:ssturkie@elon.edu

Tuning:Standard EADGBe

Guitar 1: Acoustic Guitar
Guitar 2: Electric Guitar

Verse 1: Strumming. Begin with upstroke on the Em. Look on ultimate guitar.com for the 
chord changes.
Zacky Vengeance: Guitar 1
Em
G
D
Bm
C
PreChorus: I like to hammer on 2nd fret D String to accent the C chord because it
continues from the verse to the prechorus. Same with the D chord (h3 e string)
C
D
Chorus: I'm not sure if Syn's Part is right, e-mail me if you have corrections and I'll
be glad to add them..

Synyster Gates: Guitar 2
e|--------------------------------------------------------------------|
B|--------------------------------------------------------------------|
G|--9--7/9/7--7/9---------7--9--7-------------------------------------|
D|----------------7--7/9----------------------------------------------|
A|--7--5/7/5--5/7---------5--7--5-------------------------------------|
E|----------------5--5/7----------------------------------------------|

Zacky Vengeance:Guitar 1 Strumming
Em
G
Am
Em
D

Verse 2: Syn is doing some pretty obscure picking here. Not sure how correct it is but I
think its pretty close. if anyone figures it out let me know. Zacky is strumming.

Synyster Gates: Guitar 2 (clean w/reverb)
Upstroke Em/ 2 up down strokes followed immediatley with picking.

e|--0--------------2-------------------------------------------------------------|
B|---0-----3----3---3-------2----------------------------------------------------|
G|----0-----0----0------4--------------------------------------------------------|
D|-------0----0-----------4-----Strum the C chord--------------------------------|
A|--------------------2----------------------------------------------------------|
E|------3------------------------------------------------------------------------|

Zacky Vengeance: Guitar 1
Em
G
D
Bm
C

PreChorus
Guitars 1 and 2
C
D

Chorus: Same as the first chorus(look above)

Bridge: This is where things are really tricky. Guitar 1 (Zacky) is strumming the
chords, Syn is doing some vibrato into harmonics with subtle bends i think. Im not sure
exactly how to do this technique(probably feedback) but if you find out please let me 
know and I'll correct the tab.

Synyster Gates: Guitar 2

e|-----------------------------------------------------------------------------|
B|-----------------------------------------------------------------------------|
G|--/9~--9/5--5~--2br--2~------------/9~--9/5--5~--5/2/7--7~--9--7+------------|
D|-----------------------2~--5--5b+--------------------------------------------|
A|-----------------------------------------------------------------------------|
E|-----------------------------------------------------------------------------|

Zacky Vengeance: Guitar 1
E
C
Am
Em
(Em7)

E
C
D
Am7
D
(Dsus2)

Solo 1: This is a seemingly very simple solo but the bends can actually be quite tricky
to get the exact sound and some of the pick work is subtle. This is what Syn plays watch
him playing at the Krockathon in Syracuse.
Synyster Gates: Guitar 1

e|-----------------------------------------------------------------------------|
B|----9--12--12br--10/8--8~--/10~ 10h12--10/5~--8/10--10br/7--8b---------------|
G|--/9-------------------------------------------------------------------------|
D|-----------------------------------------------------------------------------|
A|-----------------------------------------------------------------------------|
E|-----------------------------------------------------------------------------|

e|-------------------------/10--10--10--12--12--14--14--15--12~--/10--15b-----|
B|----9--12--12br--10/8--8~---------------------------------------------------|
G|--/9------------------------------------------------------------------------|
D|----------------------------------------------------------------------------|
A|----------------------------------------------------------------------------|
E|----------------------------------------------------------------------------|
[ Tab from: http://www.guitaretab.com/a/avenged-sevenfold/270085.html ]
e|--14--10--12br------------------------------------------------------------|
B|--------------------------------------------------------------------------|
G|--------------------------------------------------------------------------|
D|--------------------------------------------------------------------------|
A|--------------------------------------------------------------------------|
E|--------------------------------------------------------------------------|
Zacky Vengeance: Guitar 2
E
C
Am
Em
Em7

E
C
D
Am7
D

Chorus: Same as the first two.

Interlude: Another tricky segment to tab out.Both Guitar 1 and 2. It sounds like they
are both doing slightly different things. There is another tab on Ultimate Guitar by
davidlhcalz (props to him) that nails it this is just to spice things up a little and 
give both guitars something slightly different to play.

e|--0--0---0----2--2----2hp3---------------/7-------5---3---3----2--5/7--------|
B|------0---0-------3--------1-----0h1-------------------0---0-----------------|
G|-------0---0-------2--------2-------2-------------------0---0----------------|
D|--2-----2-----0--------------2-------2----------------2--2-----0--0----------|
A|---------------------------0---0-----------0-------0-------------------------|
E|-----------------------------------------/7--7/5--5--------------------------|

e|--5-----3-----0-----0-----------------------------------------------------|
B|---3-----3-----1-----1-----1/3--------------------------------------------|
G|----2-----2-----0-----0---------------------------------------------------|
D|--0-----0-----------------------------------------------------------------|
A|--------------0-----3-----3/5---------------------------------------------|
E|--------------------------------------------------------------------------|

Solo 2/ Outro: Guitar 1 strums chords of the interlude. Listen to the recording to get
the exact order down for the solo he changes it several times.

Synyster Gates: Guitar 2

e|--/12--12--12--14--15-----------------------------------------------------|
B|---------------------13~--12~--10/8--8~--7~--/121212--555--88-------------|
G|--------------------------------------------------------------------------|
D|--------------------------------------------------------------------------|
A|--------------------------------------------------------------------------|
E|--------------------------------------------------------------------------|

e|--------------------------------------------------------------------------|
B|--8~--7~--/121212--555--88------------------------------------------------|
G|--------------------------------------------------------------------------|
D|--------------------------------------------------------------------------|
A|--------------------------------------------------------------------------|
E|--------------------------------------------------------------------------|

e|--/12--12--12--14--15-----------------------------------------------------|
B|---------------------13~--13--15--17--15--13--12--13--12/10--8~--7~-------|
G|--------------------------------------------------------------------------|
D|--------------------------------------------------------------------------|
A|--------------------------------------------------------------------------|
E|--------------------------------------------------------------------------|

e|----------------------------------------------------------------------------|
B|--/121212--555--88----------------------------------------------------------|
G|----------------------------------------------------------------------------|
D|----------------------------------------------------------------------------|
A|----------------------------------------------------------------------------|
E|----------------------------------------------------------------------------|

Zacky Vengeance: Guitar 1
Em
D
Am
G
D
Em
D
C

Ending.

e|--------------------------------------------------------------------------|
B|--/8~--8--7--3--5~+-------------------------------------------------------|
G|--------------------------------------------------------------------------|
D|--------------------------------------------------------------------------|
A|--------------------------------------------------------------------------|
E|--------------------------------------------------------------------------|
|************************************

| /   slide up
| \   slide down
| h   hammer-on
| p   pull-off
| ~   vibrato
| +   harmonic
| x   Mute note
| b   Bend
| pb  Pre-bend
| br  Bend release
| pbr Pre-bend release
| brb Bend release bend
Related for So Far Away tab
So Far Away chords by Avenged Sevenfold