Avenged Sevenfold - Girl I Know tab

Legend:
~  :Vibrato
.5 :Half Bend
1. :Full Bend
2. :Tons Bend
b  :Bend
.  :Palm Mute
*  :Harmonic
w  :Whammy Bar
() :Hold Note
/  :Slide Up
h  :Hammer-On
p  :Pull-Off


Intro:

E|----------------------------------------------------|
B|----------------------------------------------------|
G|----------------------------------------------------|
D|-----------------------------------------------3----|
A|-------------------------------------------3-5---5~-|
D|-0-0-0-0-3~-0-0-0-0-5~-(5)-0-3-5-6-0-3-5-6----------|
   . . . .    . . . .        . . . . . . . . . .

E|------------------------------------------------------|
B|------------------------------------------------------|
G|------------------------------------------------------|
D|------------------------------------------------------|
A|------------------------------------------------------|
D|-0-0-0-0-3~-0-0-0-0-5~-(5)-5b-3-0-0-0-0-3~-0-0-0-0-5~-|
   . . . .    . . . .        .5   . . . .    . . . .

E|------------------------------------------------------------|
B|------------------------------------------------------------|
G|------------------------------------------------------------|
D|-------------------------3----------------------------------|
A|---------------------3-5---5~-------------------------------|
D|-(5)-0-3-5-6-0-3-5-6----------0-0-0-0-3-0-0-0-0-5~-(5)-5b-3-|
       . . . . . . . . . .      . . . .   . . . .        .5

E|----------------------------------------------------|
B|----------------------------------------------------|
G|----------------------------------------------------|
D|-----------------------------------------------3----|
A|-------------------------------------------3-5---5~-|
D|-0-0-0-0-3~-0-0-0-0-5~-(5)-0-3-5-6-0-3-5-6----------|
   . . . .    . . . .        . . . . . . . . . .

E|------------------------------------------------------|
B|------------------------------------------------------|
G|------------------------------------------------------|
D|------------------------------------------------------|
A|------------------------------------------------------|
D|-0-0-0-0-3~-0-0-0-0-5~-(5)-5b-3-0-0-0-0-3~-0-0-0-0-5~-|
   . . . .    . . . .        .5   . . . .    . . . .

E|-------------------------------------------------------------|
B|-------------------------------------------------------------|
G|-------------------------------------------------------------|
D|-------------------------3-----------------------------------|
A|---------------------3-5---5~--------------------------------|
D|-(5)-0-3-5-6-0-3-5-6----------0-0-0-0-3~-0-0-0-0-5~-(5)-5b-3-|
       . . . . . . . . . .      . . . .    . . . .        .5

Verse:

E|------------------------------------------------------|
B|------------------------------------------------------|
G|------------------------------------------------------|
D|----------------------------------------------0-3-5-6-|
A|-0-0--0-0-0--0--0-0--0-0-0--0--0-0--0-0-0--0--0-3-5-6-|
D|-0-0--0-0-0--0--0-0--0-0-0--0--0-0--0-0-0--0--0-3-5-6-|
   . .  . . .  .  . .  . . .  .  . .  . . .  .

E|---------------------------------------------------------|
B|---------------------------------------------------------|
G|---------------------------------------------------------|
D|----------------------------------------------/12-10-6-5-|
A|-0-0--0-0-0--0--0-0--0-0-0--0--0-0--0-0-0--0--/12-10-6-5-|
D|-0-0--0-0-0--0--0-0--0-0-0--0--0-0--0-0-0--0--/12-10-6-5-|
   . .  . . .  .  . .  . . .  .  . .  . . .  .

Hook:

E|----------------------------------------------------------------|
B|----------------------------------------------------------------|
G|----------------------------------------------------------------|
D|----------------------------------------------------------------|
A|----------------------------------------------------------------|
D|-0-0-/6~-6~-6~-0--0-0-/6~-6~-6~-6~-0--0-0-/6~-6~-6~-0--0-0-/12~-|

Verse:

E|------------------------------------------------------|
B|------------------------------------------------------|
G|------------------------------------------------------|
D|----------------------------------------------0-3-5-6-|
A|-0-0--0-0-0--0--0-0--0-0-0--0--0-0--0-0-0--0--0-3-5-6-|
D|-0-0--0-0-0--0--0-0--0-0-0--0--0-0--0-0-0--0--0-3-5-6-|
   . .  . . .  .  . .  . . .  .  . .  . . .  .

E|---------------------------------------------------------|
B|---------------------------------------------------------|
G|---------------------------------------------------------|
D|----------------------------------------------/12-10-6-5-|
A|-0-0--0-0-0--0--0-0--0-0-0--0--0-0--0-0-0--0--/12-10-6-5-|
D|-0-0--0-0-0--0--0-0--0-0-0--0--0-0--0-0-0--0--/12-10-6-5-|
   . .  . . .  .  . .  . . .  .  . .  . . .  .

Pre-Chorus:

E|------------------------------------|
B|------------------------------------|
G|------------------------------------|
D|-12----12-15-12---------12-15-12----|
A|----15----------15-(15)----------15-|
D|------------------------------------|

E|-------------------------------------------------------------------------|
B|-------------------------------------------------13-15-17-15-13----13-15-|
G|----------12-14-15-14-12----------------12-14-15----------------15-------|
D|-12-14-15----------------15-14-12-14-15----------------------------------|
A|-------------------------------------------------------------------------|
D|-------------------------------------------------------------------------|

E|----------------------15-17-18-17-18-20b-|
B|-17-15-17-18-17-18-20--------------------|
G|-----------------------------------------|
D|-----------------------------------------|
A|-----------------------------------------|
D|-----------------------------------------|
                                       1._

Chorus:

E|------------------------------------------------------------10~-------------12~-|
B|------------------------------------------------------11--------------13--------|
G|-------------10-------------12~-(12)---------------10----10--------12----12-----|
D|-12-12-12-12----12-12-12-12---------------------12--------------14--------------|
A|--------------------------------------------------------------------------------|
D|-------------------------------------/10-12-12~---------------------------------|

E|------------------------------------------------------------10~-------------12~-|
B|------------------------------------------------------11--------------13--------|
G|-------------10-------------12~-(12)---------------10----10--------12----12-----|
D|-12-12-12-12----12-12-12-12---------------------12--------------14--------------|
A|--------------------------------------------------------------------------------|
D|-------------------------------------/10-12-12~---------------------------------|

E|-12~-(12)-12-/13-12-13-12-10~-8-10~-12~-|
B|----------------------------------------|
G|----------------------------------------|
D|----------------------------------------|
A|----------------------------------------|
D|----------------------------------------|

Hook 2:

E|-----------------------------------------------5h6h8p6p5---5h6-8b-|
B|-------6-8-6-----------6-8-6-----------6-8-6-8-----------8--------|
G|------------------------------------------------------------------|
D|-----7-------7-------7-------7-------7----------------------------|
A|-5-8-----------8-5-8-----------8-5-8------------------------------|
D|------------------------------------------------------------------|
   . . .       . . . . .       . . . . .                          1.

Verse:

E|------------------------------------------------------|
B|------------------------------------------------------|
G|------------------------------------------------------|
D|----------------------------------------------0-3-5-6-|
A|-0-0--0-0-0--0--0-0--0-0-0--0--0-0--0-0-0--0--0-3-5-6-|
D|-0-0--0-0-0--0--0-0--0-0-0--0--0-0--0-0-0--0--0-3-5-6-|
   . .  . . .  .  . .  . . .  .  . .  . . .  .

E|---------------------------------------------------------|
B|---------------------------------------------------------|
G|---------------------------------------------------------|
D|----------------------------------------------/12-10-6-5-|
A|-0-0--0-0-0--0--0-0--0-0-0--0--0-0--0-0-0--0--/12-10-6-5-|
D|-0-0--0-0-0--0--0-0--0-0-0--0--0-0--0-0-0--0--/12-10-6-5-|
   . .  . . .  .  . .  . . .  .  . .  . . .  .

Hook:

E|----------------------------------------------------------------|
B|----------------------------------------------------------------|
G|----------------------------------------------------------------|
D|----------------------------------------------------------------|
A|----------------------------------------------------------------|
D|-0-0-/6~-6~-6~-0--0-0-/6~-6~-6~-6~-0--0-0-/6~-6~-6~-0--0-0-/12~-|

Verse:

E|------------------------------------------------------|
B|------------------------------------------------------|
G|------------------------------------------------------|
D|----------------------------------------------0-3-5-6-|
A|-0-0--0-0-0--0--0-0--0-0-0--0--0-0--0-0-0--0--0-3-5-6-|
D|-0-0--0-0-0--0--0-0--0-0-0--0--0-0--0-0-0--0--0-3-5-6-|
   . .  . . .  .  . .  . . .  .  . .  . . .  .

E|---------------------------------------------------------|
B|---------------------------------------------------------|
G|---------------------------------------------------------|
D|----------------------------------------------/12-10-6-5-|
A|-0-0--0-0-0--0--0-0--0-0-0--0--0-0--0-0-0--0--/12-10-6-5-|
D|-0-0--0-0-0--0--0-0--0-0-0--0--0-0--0-0-0--0--/12-10-6-5-|
   . .  . . .  .  . .  . . .  .  . .  . . .  .

Pre-Chorus:

E|------------------------------------|
B|------------------------------------|
G|------------------------------------|
D|-12----12-15-12---------12-15-12----|
A|----15----------15-(15)----------15-|
D|------------------------------------|

E|-------------------------------------------------------------------------|
B|-------------------------------------------------13-15-17-15-13----13-15-|
G|----------12-14-15-14-12----------------12-14-15----------------15-------|
D|-12-14-15----------------15-14-12-14-15----------------------------------|
A|-------------------------------------------------------------------------|
D|-------------------------------------------------------------------------|

E|----------------------15-17-18-17-18-20b-|
B|-17-15-17-18-17-18-20--------------------|
G|-----------------------------------------|
D|-----------------------------------------|
A|-----------------------------------------|
D|-----------------------------------------|
                                       1._

Chorus:

E|------------------------------------------------------------10~-------------12~-|
B|------------------------------------------------------11--------------13--------|
G|-------------10-------------12~-(12)---------------10----10--------12----12-----|
D|-12-12-12-12----12-12-12-12---------------------12--------------14--------------|
A|--------------------------------------------------------------------------------|
D|-------------------------------------/10-12-12~---------------------------------|

E|------------------------------------------------------------10~-------------12~-|
B|------------------------------------------------------11--------------13--------|
G|-------------10-------------12~-(12)---------------10----10--------12----12-----|
D|-12-12-12-12----12-12-12-12---------------------12--------------14--------------|
A|--------------------------------------------------------------------------------|
D|-------------------------------------/10-12-12~---------------------------------|

E|-12~-(12)-12-/13-12-13-12-10~-8-10~-12~--------------|
B|----------------------------------------5*-(5*)--5*w-|
G|-----------------------------------------------------|
D|-----------------------------------------------------|
A|-----------------------------------------------------|
D|-----------------------------------------------------|

Solo:

E|----------------------------------------------------------------|
B|-------------------------13b-13~--15-15-15-15-15-15-15-15----15-|
G|----------------------------------------------------------13----|
D|-12-12-12-12-12-12-12-12----------------------------------------|
A|----------------------------------------------------------------|
D|----------------------------------------------------------------|
                           2.
E|-17b-p15-16b~---------------------------------|
B|--------------------13b-12-11-10--------------|
G|-----------------10--------------13-----------|
D|--------------12--------------------12-11-10~-|
A|----------------------------------------------|
D|----------------------------------------------|
   2.      1.         2.

E|---------------------------------------------------------------17br-|
B|-------------------------13b-13~--15-15-15-15-15-15-15-15----15-----|
G|----------------------------------------------------------13--------|
D|-12-12-12-12-12-12-12-12--------------------------------------------|
A|--------------------------------------------------------------------|
D|--------------------------------------------------------------------|
                           2.                                    2.
E|--------------------------------------------|
B|-15t/22-13t/23-12t/22-10-13-12-10-----------|
G|----------------------------------13-12-10~-|
D|--------------------------------------------|
A|--------------------------------------------|
D|--------------------------------------------|

E|-10-8----8------8--8----------------------------------------------|
B|------10---10-9------10-9--------9--9-----------------------------|
G|--------------------------10-9-7------10-9-7-9-7----7-9-10--10-7~-|
D|-------------------------------------------------/6---------------|
A|------------------------------------------------------------------|
D|------------------------------------------------------------------|

E|-10-8----8------8--8---------------------------------------------/20-17~-|
B|------10---10-9------10-9-----------------8-/13-10~-----13-15-18---------|
G|--------------------------10-9-7~-/7-9-10------------14------------------|
D|-------------------------------------------------------------------------|
A|-------------------------------------------------------------------------|
D|-------------------------------------------------------------------------|

E|-10-8----8------8--8----------------------------------------------|
B|------10---10-9------10-9--------9--9-----------------------------|
G|--------------------------10-9-7------10-9-7-9-7----7-9-10--10-7~-|
D|-------------------------------------------------/6---------------|
A|------------------------------------------------------------------|
D|------------------------------------------------------------------|

E|-10-8----8------8--8---------------------------------------------/20-17~-|
B|------10---10-9------10-9-----------------8-/13-10~-----13-15-18---------|
G|--------------------------10-9-7~-/7-9-10------------14------------------|
D|-------------------------------------------------------------------------|
A|-------------------------------------------------------------------------|
D|-------------------------------------------------------------------------|

E|-20b-----------------|
B|------13-13-11-10-8~-|
G|---------------------|
D|---------------------|
A|---------------------|
D|---------------------|
   2.

Bridge:

E|-----------------10~-15-17-18-17~-15b-18~-13h18p13~-9h13p9~-5h9p5~----|
B|-------------------------------------------------------------------7~-|
G|-7~-12-14-15-14~------------------------------------------------------|
D|----------------------------------------------------------------------|
A|----------------------------------------------------------------------|
D|----------------------------------------------------------------------|
                                    1.
E|------------------------------------------------------------------------------------|
B|------------------------------------------------------------------------------------|
G|-/9~-/10~-/12~-/14~---------------------------------------------------------5*-(5*)-|
D|------------------------------------------------------------------------------------|
A|------------------------------------------------------------------------------------|
D|--------------------0-0-/6~6~6~-0-0-0-/6~6~6~6~-0-0-/6~6~6~-0-0-0-/6~6~6~6~---------|



Chorus:

E|------------------------------------------------------------10~-------------12~-|
B|------------------------------------------------------11--------------13--------|
G|-------------10-------------12~-(12)---------------10----10--------12----12-----|
D|-12-12-12-12----12-12-12-12---------------------12--------------14--------------|
A|--------------------------------------------------------------------------------|
D|-------------------------------------/10-12-12~---------------------------------|

E|------------------------------------------------------------10~-------------12~-|
B|------------------------------------------------------11--------------13--------|
G|-------------10-------------12~-(12)---------------10----10--------12----12-----|
D|-12-12-12-12----12-12-12-12---------------------12--------------14--------------|
A|--------------------------------------------------------------------------------|
D|-------------------------------------/10-12-12~---------------------------------|

E|-12~-(12)-12-/13-12-13-12-10~-8-10~-12~-|
B|----------------------------------------|
G|----------------------------------------|
D|----------------------------------------|
A|----------------------------------------|
D|----------------------------------------|

Verse:

E|------------------------------------------------------|
B|------------------------------------------------------|
G|------------------------------------------------------|
D|----------------------------------------------0-3-5-6-|
A|-0-0--0-0-0--0--0-0--0-0-0--0--0-0--0-0-0--0--0-3-5-6-|
D|-0-0--0-0-0--0--0-0--0-0-0--0--0-0--0-0-0--0--0-3-5-6-|
   . .  . . .  .  . .  . . .  .  . .  . . .  .

E|--------------------------------------------------------------|
B|--------------------------------------------------------------|
G|--------------------------------------------------------------|
D|----------------------------------------------/12-10-6-5------|
A|-0-0--0-0-0--0--0-0--0-0-0--0--0-0--0-0-0--0--/12-10-6-5--0-0-|
D|-0-0--0-0-0--0--0-0--0-0-0--0--0-0--0-0-0--0--/12-10-6-5--0-0-|
   . .  . . .  .  . .  . . .  .  . .  . . .  .              . .
Tap to rate this tab
 
# A B C D E F G H I J K L M N O P Q R S T U V W X Y Z