Song name
# A B C D E F G H I J K L M N O P Q R S T U V W X Y Z

Avenged Sevenfold - Thick And Thin tab

THICK AND THIN Tab

Avenged Sevenfold

----

Drop D

----

 intro
e|-------------------------------|-------------------------------------------| 
B|----------------------------2x-|-------------------------------------------| 
G|-------------------------------|-------------------------------------------| 
D|----------0~------0~-----------|--1-0--3-5---------------------------------| 
A|----------0~------0~-----------|--1-0--3-5---------------------------------| 
D|----------0~-----00~-----------|--1-0--3-5---------------------------------|
PM                 : 

 pre verso
e|---------------------------------------------------------------------------|
B|---------------------------------------------------------------------------|
G|---------------------------------------------------------------------------|
D|-------0-0-0-0-0-0-0-0-0-0-0-0-0-0-0-0-------------------------------------|
A|-------0-0-0-0-0-0-0-0-0-0-0-0-0-0-0-0-------------------------------------|
D|-------0-0-0-0-0-0-0-0-0-0-0-0-0-0-0-0-------------------------------------|

 verso (s os acordes, o ritmo  com voce ;)
e|------------------------|---------------------------------------------------| 
B|------------------------|---------------------------------------------------|
G|-------------5----------|---------5-----------------------------------------|
D|-------0--3--5--8-7-3-2-|---0--3--5--8-7-5-3-5-3-2--------------------------|
A|-------0--3--3--8-7-3-2-|---0--3--3--8-7-5-3-5-3-2--------------------------|
D|-------0--3-----8-7-3-2-|---0--3-----8-7-5-3-5-3-2--------------------------|
PM                                       : : : : : : 

 pre refrao 4x
e|--------------------------------------------------------------------------| 
B|--------------------------------------------------------------------------| 
G|---------------------------------------------------5-3-2-3-2--------------| 
D|-------------------------------------------------------------3------------| 
A|-------1-0--1-0-------1-0--1-0-------1-0--1-0-----------------------------| 
D|-------1-0--1-0--000--1-0--1-0--000--1-0--1-0-000-------------------------| 
PM                 :::            :::           :::

 refrao 4x
e|---------------------------------------------------------------------------| 
B|---------------------------------------------------------------------------| 
G|----------------5--7--5/7--------------------------------------------------| 
D|--------00------5--7--5/7-3-3------3--5--3--2------------------------------| 
A|--------00----0-3--5--3/5-3-3--3-3-3--5--3--2------------------------------| 
D|--------00-0000-----------3-3--3-3-3--5--3--2------------------------------| 
PM           :::                 : :          
 
 interlude 2x
e|---------------------------------------------------------------------------| 
B|---------------------------------------------------------------------------| 
G|---------------------------------------------------------------------------| 
D|---------0-3-2-0-3-0-6-7---5-8-7-5-3-2-3-0---------------------------------| 
A|---------0-3-2-0-3-0-6-7---5-8-7-5-3-2-3-0---------------------------------| 
D|---------0-3-2-0-3-0-6-7---5-8-7-5-3-2-3-0---------------------------------|
 

TOCAR

refrao 4x

interlude 2x

 
 ponte 2x
e|---------------------------------------------------------------------------| 
B|---------------------------------------------------------------------------| 
G|---------------------------------------------------------------------------| 
D|---------------------------------------------------------------------------| 
A|----------8p7-8p7-8p7-8p7---1p0-3-5--1p0-3-5-------------------------------| 
D|----------8p7-8p7-8p7-8p7---1p0-3-5--1p0-3-5-------------------------------| 


e|--------------------------|------------------------------------------------| 
B|--------------------------|------------------------------------------------| 
G|--------------------------|---------------------------------------------4x-| 
D|----------3-023-5~--6~----|--000--------------000--------------------------| 
A|----------3-023-5~--6~----|--000---0-0-0-3-5--000---0-0-0-6-5-3------------| 
D|----------3-023-5~--6~----|--000---0-0-0-3-5--000---0-0-0-6-5-3------------| 
PM            :::                                           : :

e|--------------------------|------------------------------------------------| 
B|--------------------------|------------------------------------------------| 
G|--------------------------|---------------------------------------------4x-| 
D|----------3-023-5~--6~----|--000--------------000--------------------------| 
A|----------3-023-5~--6~----|--000---0-0-0-3-5--000---0-0-0-6-5-3------------| 
D|----------3-023-5~--6~----|--000---0-0-0-3-5--000---0-0-0-6-5-3------------| 
PM            :::                                           

e|---------------------------------------------------------------------------|
B|---------------------------------------------------------------------------|
G|---------------------------------------------------------------------------|
D|----------3-023-5~--6~-----------------------------------------------------|
A|----------3-023-5~--6~-----------------------------------------------------|
D|----------3-023-5~--6~-----------------------------------------------------|
PM            :::

e|--solinho 1x----------------------------------------------------------------| 
B|---------------------------------------------------------------------------| 
G|-----------7------7---7-----------7------7---7-----------------------------| 
D|-----------7------7---7--1-0-3-5--7------7---7-----------------------------| 
A|-----------5-5555-5-5-5--1-0-3-5--5-5555-5-5-5-7-5-3-5-3-2-----------------| 
D|-------------------------1-0-3-5---------------7-5-3-5-3-2-----------------| 
PM                                               : : : : : :
 
TOCAR

verso 1x

pre Refrao 4x


FIM.
e|---------------------------------------------------------------------------|
B|---------------------------------------------------------------------------|
G|---------------------------------------------------------------------------|
D|--------0~-----------------------------------------------------------------|
A|--------0~-----------------------------------------------------------------|
D|--------0~-----------------------------------------------------------------|


By Menidii
Tap to rate this tab
 
# A B C D E F G H I J K L M N O P Q R S T U V W X Y Z