Song name
# A B C D E F G H I J K L M N O P Q R S T U V W X Y Z

Avenged Sevenfold - So Far Away tab

Hello.
This is "So Far Away" Tab.
I figured it out by myself. I didn't use tabs...I didn't copy anyone's hard work.
So, the first solo starts at 1:54 You can hear Syn's guitar in the background, when M.
Shadows sings "...Sleep tight, I'm not afraid. The ones that we love are here with me..."


e|--------------------------------|------------------------------|
B|--------------------------------|------------------------------|
G|-/9v~---/5v~--4v~--2v~--4v--4*--|-/9v~---/5v---7--9--12--11*---|
D|--------------------------------|------------------------------|
A|--------------------------------|------------------------------|
E|--------------------------------|------------------------------|

After that you play this

e|---------------\/-(bending-from-12-to-13-and-back-to-12)--------------|
B|-----9-12--12b(13)----------------------------------------------------|
G|--/9--------------12---14-14-14b(16)-14--9--12--14--14b(16)--12v------|
D|----------------------------------------------------------------------|
A|----------------------------------------------------------------------|
E|----------------------------------------------------------------------|



e|-----------------\/-(again-bending-from-12th-fret-to-13th)--|
B|------9--12--12b(13)--------------15-15--17-17--19-19-19-20-|
G|--/9-----------------12~------------------------------------|
D|------------------------------------------------------------|
A|------------------------------------------------------------|
E|------------------------------------------------------------|

----------17b(18)---------------------|
------------------19--15--19----------|
21~---19------------------------------|
--------------------------------------|
--------------------------------------|
--------------------------------------|

After a little acoustic intro which starts at 3:28 You play this:

e|----------------------------------------------------|
B|--/17--19--20-20---------------------12-12----------|
G|-----------------17--16--14---12--11-------9--9-/12-|
D|----------------------------------------------------|
A|-----------PLAY------IT------TWICE------------------|
E|----------------------------------------------------|

And then this

e|-------------------------|
B|---------12-12-----------|
G|-/12--11-------9--9-/12--|
D|-------------------------|
A|-------------------------|
E|-------------------------|


e|---------------------------------------------------------------|
B|--/17--19--20-20--------------------------12-12----------------|
G|-----------------17--16h17-16---14--12-11-------9--9-/12-------|
D|---------------------------------------------------------------|
A|---------------------------------------------------------------|
E|---------------------------------------------------------------|


e|----------------------------------------------------------------------------|
B|--/17--19--20-20---------------------------------------12-12----------------|
G|-----------------17--19h21h17h19-16h17-14h16-12--12-11-------9--9-/12-------|
D|----------------------------------------------------------------------------|
A|----------------------------------------------------------------------------|
E|----------------------------------------------------------------------------|


e|-------------------------|
B|---------12-12-----------|
G|-/12--11-------9--9-/12--|
D|-------------------------|
A|-----PLAY-IT-3-TIMES-----|
E|-------------------------|

And now the last part

e|-------------------------|
B|-------------------------|
G|-/12--11---7--7b(9)-7*---|
D|-------------------------|
A|-------------------------|
E|-------------------------|


/ - slide
b - bending
v - vibrato
* - harmonic
Tap to rate this tab
 
# A B C D E F G H I J K L M N O P Q R S T U V W X Y Z