Guitaretab - guitar tabs
Song name
# A B C D E F G H I J K L M N O P Q R S T U V W X Y Z

Avenged Sevenfold - So Far Away Arpeggios tab

 Em                        G
  How do I live without the ones i love?
  Am                                Em            D
  Time still turns the pages of the book it's burned
  Em                    G
  Place and time always on my mind
          Am                                 C          D
  And the light you left remains but it's so hard to stay
         Am                                C       D
  When I have so much to say and you're so far away

Estuve buscando por mucho tiempo los arpegios de esta cancion y no los encontraba asi
que decidi sacarlos yo mismo y aqui estan.
[ Tab from: http://www.guitaretab.com/a/avenged-sevenfold/282045.html ]
Empieza en el minuto
 3:30
E------------------------------------------------|
A-----------------------------0------------------|
D-2----------------------------------2-----------|
G-------0--------2-----------------2------2------|
B-----0-----0-------3-----3---1--1------1--------|
E-0-0-----0------2-----3-------------------------|


E-3------2---------------------------------------|
A------------------------------------------------|
D-----------------2-------------4----------------|
G--------------------------0--------------0------|
B----3------3----------0-------------3-----------|
E-7------5--------3--3---3------5--5----5--------|

E------------------------------------------------|
A-3----------------------------------------------|
D-------------2----------------------------------|
G---------------0---0----------------------------|
B----1-----1------1------------------------------|
E-0-----3----------------------------------------|


Escuchen la cancion y poco a poco vayanlos sacando
saludos.....
Related for So Far Away Arpeggios tab
So Far Away Arpeggios chords by Avenged Sevenfold