Avenged Sevenfold - Natural Born Killer tab

So yeah I'm sure you've heard it all before, but this is my first tab so any criticism 
or compliments will be well recieved.

Just one guitar for now.

If you're looking up this solo I doubt you'll need a legend =]

The rest is on it's way once i get my high E string repaired!!!
Watch this space.



e|----------------------------------------------------------------|
B|----------------------------------------------------------------|
G|----------------------------------------------------------------|
D|-8///12~~~--5~~5-5-5-53//1--1-1-1-0-------/5--0-1~~--0-1-------|
A|-------------------------------------3//1--/5--0-1~~--0-1-------|
D|-------------------------------------------/5--0-1~~--0-1///////|
                 . . . .       . . .

e|----------------------------------------------------------------|
B|-----------------------------6---6----------8--------11-10-8----|
G|-----------------------7---7---7---8---8-10---10-8-----------8--|
D|---------------------8---8-----------8-------------8------------|
A|------------------10--------------------------------------------|
D|////15~~13-12-10------------------------------------------------|

e|-----------------------------------------------------------|
B|10h8-------------------------------6---6----------8--------|
G|-----8---7-8-7----8~~7--------7---7---7---8---8-10---8---8-|
D|-------8-------10-----------8---8-----------8----------8---|
A|-----------------------10----------------------------------|
D|-----------------------------------------------------------|

e|---------------------------------------------------|
B|-11~~10h11p10---11///16~15h16p15--15---------------|
G|--------------12----------------15--15-1412~~~----|
D|---------------------------------------------------|
A|---------------------------------------------------|
D|---------------------------------------------------|
Tap to rate this tab
 
# A B C D E F G H I J K L M N O P Q R S T U V W X Y Z