Song name
# A B C D E F G H I J K L M N O P Q R S T U V W X Y Z

Avenged Sevenfold - God Hates Us tab

This is my first tab. So I hope this helps anyone. This is all of the intro that I know. 
e|-------------------------------------------|
B|--10-----10----8---8-----6---6---5---5-----|    
G|----10----10----9----9----7---7---7----7---| x4
D|------12----12---10----10---7---7---8----8-|
A|-------------------------------------------| 
D|-------------------------------------------| 

e|-------------------------------------------| 
B|10-13-8-13-8-10-8--------------------------|
G|-------------------10-7-8-9-7--------------|
D|------------------------------8------------|
A|-------------------------------------------| 
D|-------------------------------------------|
Tap to rate this tab
# A B C D E F G H I J K L M N O P Q R S T U V W X Y Z