Song name
# A B C D E F G H I J K L M N O P Q R S T U V W X Y Z

Avenged Sevenfold - Red Is The New Black tab

This song is by Funeral for a Friend, not Avenged Sevenfold... just trying to help out 
the users requesting it, but I have no way to contact them.

This is the actual tab:
tuning- eb bb gb db Ab Db
* - PM
+ - harmonics
/\-slides
~-let ring

Intro-

Verse

GtrI
|---------------------------------------------------------|
|---------------------------------------------------------|
|---------------------------------------------------------|2x
|---------------------------------------------------------|
|-9-9---11-9--11-9----9-9--12---9-9--12----9-9--11--9-----|
|---------------------------------------------------------|
  * *   *  *   * *    * *  *    * *   *    * *  *   *

|---------------------------------------------------------|
|---------------------------------------------------------|
|-----------------13----------------------13--------------|
|-----------14-----14------------14--------14-------------|2x
|----12---------------------12----------------------------|
|-12----12-----12--------12----12-----12------------------|


then
GtrI
|---------------------------------------------------------|
|---------------------------------------------------------|
|---------------------------------------------------------|2x
|---------------------------------------------------------|
|-9-9---11-9--11-9----9-9--12---9-9--12----9-9--11--9-----|
|---------------------------------------------------------|
  * *   *  *   * *    * *  *    * *   *    * *  *   *

2.2x
interlude
GtrI
|----------------------------------------------------------|
|----------------------------------------------------------|
|----------------------------------------------------------|
|--4-44-6-44-7-44-7-44-6-4---44-6-44-7-44-7-44-6-4---------|
|--4-44-4-44-4-44-4-44-4-4---44-4-44-4-44-4-44-4-4---------|
|--4-44-4-44-4-44-4-44-4-4---44-4-44-4-44-4-44-4-4---------|
     **   **   **   ** *     **   **   **   **

|---------------------------------------------------------|
|--------------7+-----7+--------------7+-----7+-----------|
|----------5+-----5+------7+-------5+-----5+----7+--------|
|--0-0-0---------------------7+--------------------7+-----|
|--0-0-0------------------------5+--------------------5+--|
|--0-0-0--------------------------------------------------|

--------------------------------------------------|
-----7+-----7+----------------7+-----7+-----------|
-5+-----5+------7+---------5+-----5+--------------|
-------------------7+-----------------------------|
---------------------5+---------------------------|
--------------------------------------------------|


GtrI
|-----------------------|
|-----------------------|
|-6~----------6~--------|
|-4~----------4~--------|
|-4~----------4~--------|
|-4~----------4~--------|

|---------------------------------------------------------------------|
|---------------------------------------------------------------------|
|---------------------------------------------------------------------|
|-0-0-0-0-0-0-0-0-0-0-0-0-0-0-0-0-0-0-0-0-0-0-0-0-0-0-0-0-0-0---------|
|-0-0-0-0-0-0-0-0-0-0-0-0-0-0-0-0-0-0-0-0-0-0-0-0-0-0-0-0-0-0---------|
|-0-0-0-0-0-0-0-0-0-0-0-0-0-0-0-0-0-0-0-0-0-0-0-0-0-0-0-0-0-0---------|
  * * * * * * * * * * * * * * * * * * * * * * * * * * * * * *

Verse-
do 3x

GtrI
|---------------------------------------------------------|
|---------------------------------------------------------|
|---------------------------------------------------------|2x
|---------------------------------------------------------|
|-9-9---11-9--11-9----9-9--12---9-9--12----9-9--11--9-----|
|---------------------------------------------------------|

|--------------------------------------------------|
|--------------------------------------------------|
|--------14/13--13\14------------------------------|
|-0-0-0-------0-----------------14--------11/12----|2x
|-0-0-0-------0--------9--11-12-------12-----------|
|-0-0-0-------0--------0--0--0--------0------------|
  * * *       *        *  *  *        *

|---------------------------------------------------------|
|---------------------------------------------------------|
|---------------------------------------------------------|2x
|---------------------------------------------------------|
|-9-9---11-9--11-9----9-9--12---9-9--12----9-9--11--9-----|
|---------------------------------------------------------|

|--------------------------------------------------|
|-----------14-----------------14------------------|
|-----------14-----------------14------------------|
|-0-0-0--0------------0-0-0--0-11/12---------------|2x
|-0-0-0--0------------0-0-0--0---------------------|
|-0-0-0--0------------0-0-0--0---------------------|
  * * *  *            * * *  *
GtrII2x
|---------------------------------------------------------|
|---------------------------------------------------------|
|---------------------------------------------------------|2x
|---------------------------------------------------------|
|-9-9---11-9--11-9----9-9--12---9-9--12----9-9--11--9-----|
|---------------------------------------------------------|

|--------------------------------------------------|
|--------------------------------------------------|
|--------------------------------------------------|
|-0-0-0-0----0-0-0-0----0-0-0-0-0-----0-0-0-0------|
|-0-0-0-0----0-0-0-0----0-0-0-0-0-----0-0-0-0------|
|-0-0-0-0----0-0-0-0----0-0-0-0-0-----0-0-0-0------|

then
both
gtrs
|-------------------------|
|-------------------------|
|-------------------------|
|-0-0-0-0-0-0-0-0---------|
|-0-0-0-0-0-0-0-0---------|
|-0-0-0-0-0-0-0-0---------|
  * * * * * * * *


Chorus-
GtrI
|---------------0---------------0------7------10-10-9--10-12--------|
|-------10--9------------10-9-------10---9----10-10-10-10-10--------|
|----9--------9--------9------9-------------9-----------------------|
|-7-----------------7-----------------------------------------------|
|-------------------------------------------------------------------|
|-------------------------------------------------------------------|

GtrII
|-------------------------------------------------------------------|
|-------------------------------------------------------------------|
|-9-9-9-9-9-9-9-9-9-9-9-9-9-9-9-9---6-6-6-6-6-6-6-6---7-7-7-7-7-7---|
|-7-7-7-7-7-7-7-7-7-7-7-7-7-7-7-7---4-4-4-4-4-4-4-4---0-0-0-0-0-0---|
|-7-7-7-7-7-7-7-7-7-7-7-7-7-7-7-7---4-4-4-4-4-4-4-4---0-0-0-0-0-0---|
|-7-7-7-7-7-7-7-7-7-7-7-7-7-7-7-7---4-4-4-4-4-4-4-4---0-0-0-0-0-0---|

do
Verse-
Chorus-

then
both
|-----------------------------------------------------------------------|
|-----------------------------------------------------------------------|
|-----------------------------------------------------------------------|
|-00-00-00-00-00-00-00-00-00-00-00-00-00-00-00-00-00-00-00-00-00-00-----|2x
|-00-00-00-00-00-00-00-00-00-00-00-00-00-00-00-00-00-00-00-00-00-00-----|
|-00-00-00-00-00-00-00-00-00-00-00-00-00-00-00-00-00-00-00-00-00-00-----|
  ** ** ** ** ** ** ** ** ** ** ** ** ** ** ** ** ** ** ** ** ** **

then
GtrI
|---------------------------------------------------------|
|---------------------------------------------------------|
|---------------------------------------------------------|
|---------------------------------------------------------|4x
|-9-9---11-9--11-9----9-9--12---9-9--12----9-9--11--9-----|
|---------------------------------------------------------|

bridge
do 4x
both
|-------------------------------------------------------------------------|
|-------------------------------------------------------------------------|
|-6-6-6-6-6--6-6-6-6-6--6-6-6-6-6---9-9-9-9-------------------------------|
|-4-4-4-4-4--4-4-4-4-4--4-4-4-4-4---7-7-7-7--00-000-0-0-00--000-0-0-00----|
|-4-4-4-4-4--4-4-4-4-4--4-4-4-4-4---7-7-7-7--00-000-0-0-00--000-0-0-00----|
|-4-4-4-4-4--4-4-4-4-4--4-4-4-4-4---7-7-7-7--00-000-0-0-00--000-0-0-00----|
                                             ** *** * * **  *** * * **

Outro
do 'til fade
|---------------------------------------------------------------|
|---------------------------------------------------------------|
|---------------------------------------------------------------|
|-00-000-0-0-00--000-0-0-00--000-0-0-00--000-0-0-00--000-0-0-00-|
|-00-000-0-0-00--000-0-0-00--000-0-0-00--000-0-0-00--000-0-0-00-|
|-00-000-0-0-00--000-0-0-00--000-0-0-00--000-0-0-00--000-0-0-00-|
  ** *** * * **  *** * * **  *** * * **  *** * * **  *** * * **
Tap to rate this tab
# A B C D E F G H I J K L M N O P Q R S T U V W X Y Z