Song name
# A B C D E F G H I J K L M N O P Q R S T U V W X Y Z

Avenged Sevenfold - Fiction tab

Two guitars arranged for piano.

"Piano Left-Hand" Guitar: CGCFAD
"Piano Right-Hand" Guitar: CGCFAD

FIRST PART

"Piano Left-Hand"
|-----------------------------||-------------------------------|
|-----------------------------||-------------------------------|
|-----------------------------||-------------------------------|
|-----0-----0-----0-----0-----||-----0-----0-----0-----0-------|
|---0-----0-----0-----0-------||---0-----0-----0-----0---------|
|-0-----0-----0-----0---------||-0-----0-----0-----0-----------|

Play as triplets, having low C be the start of each beat (not good at this).


"Piano Right-Hand"
|---10--9-10----||------------------------|
|------------11-||--7--10--11--10---------|
|---------------||------------------------|
|---------------||------------------------|
|---------------||------------------------|
|---------------||------------------------|

Of course the timing isn't right, but hit the first high C on the second beat,
The high B on the (counting 1 + a 2 + a... etc.) a in the second beat
The second high C on the 3rd beat, G# on the 4th, and the last four notes are quarters.
I'm not good at note timings and such.

SECOND PART

"Piano Left-Hand"
|-----------------------------||-------------------------------|
|-----------------------------||-------------------------------|
|-----------------------------||-------------------------------|
|-----5-----5-----5-----5-----||-----5-----5-----5-----5-------|
|---5-----5-----5-----5-------||---5-----5-----5-----5---------|
|-5-----5-----5-----5---------||-5-----5-----5-----5-----------|

Same rhythm as the first part.


"Piano Right-Hand"
|----------------||-----------------------|
|----------------||------------777--------|
|----------555---||---777-----------------|
|----------------||-----------------------|
|----------------||-----------------------|
|----------------||-----------------------|

Start each note every other beat (Bb on 3, [new bar] C on 1and E on 3)
Tap to rate this tab
# A B C D E F G H I J K L M N O P Q R S T U V W X Y Z